Atomsko Skloniste - Poslednji Let Boinga 707

Transkripcija: ROCKER

Ovo je tablatura za bass,koja je i osnova cele pesme!

 1.glavni deo-super vozanje na basu
 G----------------------------------
 D---------------------3-2----------
 A---------------5-3-------3-5------
 E-4-5-5-5-5-5-5-----5--------------

  1.glavni deo
  Ja ti masem svakog dana
  A BOING zaglusuje mi buku srca
  Zato danas objavljujem
  Zadnje vesti iz svog srca

  C             
  poslednji let boinga 707
        C    G      D           A
 	Necu vise da strahujem za tebe
        C       G        D      GAC GAC
	Hocu da budes na zemlji
        C          G       D
	Stjuardesa cvetnih polja
        C         G         D       GACG GACG
	I zelenih livada bez ograda
        C         G      D
	Hocu da zajedno samnom 
        C      G        D      2.deo
	Mases pticama u letu   

    
 2.deo -zanimljiva linija narocito za bass
 G------------------------
 D-----------------2-3-5--
 A-------5-7---3-5--------
 E-5-7-8------------------