Atomsko Skloniste - Rahela

Album        : Metalna higijena (1982)
Transkripcija: reuf (quentindoa@hotmail.com)


_______________________________________________________________
Mala napomena: ovaj vibratio u glavnim riffovima je malo zaj....

Intro: Riff
 E|--(-----------RiffA----------------)--------------------------------------
 H|--------------------------------------------------------------------------
 G|--11h12~--11~---5h7~--7~-(7~)--7p5p0-----11h12~--14~--7--5h7~-7~--7p5p0--- 2x
 D|--0-------0-----0-----0--(0-)--0---------0-------0----0--0----0---0-------
 A|--------------------------------------------------------------------------
 E|--------------------------------------------------------------------------
     RiffB
 E|--------------------------------------------------------------------------
 H|--------------------------------------------------------------------------
 G|--11h12~--14~---7~--5h7~--7~--5h7~--7~--5h7~--0---------------------------
 D|--0-------0-----0---0-----0---0-----0---0-----0---------------------------
 A|--------------------------------------------------------------------------
 E|--------------------------------------------------------------------------

1. strofa

RiffA (3x)
Zazelio sam krenuti
Tvojim putem
Na obale daleke
RiffB (1x)
Gdje kolibe mirisu na ruze

RiffA (3x)
Burmanskim putem
Stici cu pred zid placa
Uzet te za ruku
RiffB (1x)                       F5 C5 D5
I povesti da nitko neznaaaaaa

    Riff_2
 E|--(--------------Riff_2A------------------------)-------------------------
 H|--------------------------------------------------------------------------
 G|-------7~-7~--------7~-7~-------7~-7~--------7~-7~------7~-7~------7~-7~--
 D|--0-0-0--------------------0-0-0-------------------0-0-0------------------
 A|-------------5-5-5-5------------------5-5-5-5----------------5-5-5-5------
 E|--------------------------------------------------------------------------
                                                      snivat...
 E|--------------------------------------------------------------------------
 H|--------------------------------------------------------------------------
 G|---------5~-5~--------5~-5~-------3~-3~--------3~-3~-----3----------------
 D|---------------------------------------------------------3----------------
 A|--3-3-3-3------3-3-3-3-----1-1-1-1------1-1-1-1----------1----------------
 E|--------------------------------------------------------------------------


Riff_2 (4x)
Snivat cemo cijelim putem
Na lezaju od palmi
U smiraj bijelog dana
Slusat cemo trube Jerihona
Puknut ce nesto tada
U glavi mojoj...
Zastat ce nicija ruka
       Riff_2A
U kosi tvojoj...


      Fill
 E|----6-5-3---3-------------------------------------------------------------
 H|----------6---6-5-3-----5h6s8---------------------------------------------
 G|--------------------3-----------------------------------------------------
 D|------------------------------------7-------------------------------------
 A|------------------------------------5-------------------------------------
 E|--------------------------------------------------------------------------
                       ....putujmo..   vjecnosti


Refren A

C5         D5   Fill
Putujemo Rahela
Putujemo do vjecnosti
Putujemo Rahela
C
Putujmoooo
             Intro:Riff (2X)
Do obale Goe


Refren B

C5         D5   Fill
Putujemo Rahela
Putujemo do vjecnosti
Putujemo Rahela
C
Putujmoooo
             Riff_2A (2x)
Do obale Goe


Refren A (2x) ... KRAJ.