Atomsko Skloniste - Umro Je Najveci Mrav

Album        : Ne cvikaj generacijo (1978)
Transkripcija: ivan3  a38@net.hr


Intro:
  A                                       C         G         A
|-------------------|-------------------|-------------------|-------------------|
|-------------------|-------------------|-------------------|-------------------|
|o-10.5r9--7--9~~---|-10.5r9--7--9~~----|10.5r7--5--7b9r7~~-|-6~~~-------------o|
|o------------------|-------------------|-------------------|------------------o|
|-------------------|-------------------|-------------------|-------------------|
|-------------------|-------------------|-------------------|-------------------|

Uzorak okidanja:
  A          Hm/A       D7/A
|--------------------------------|
|-----2----------3----------7----|
|-----2----------4----------5----|
|---2---2------4---4------7---7--|
|-0----------0----------0--------|
|--------------------------------|


A
Najveci mrav u mom vrtu
Hm/A
Umro je od srcane kapi
    D7/A
Svi mravi tuguju, isplakase za dan
A
Suza vec dv'je - tri kapi


Umro je vidjevsi ljude
Kako bezbrizno lazu
Umro je vidjevsi ljude
Kako bezbrizno kradu         A   E/G#


F#m               E
Umro je kad su sa vrata
C               G
Otjerali starog prosjaka
A                 E
I kad je cuo pred skolom
C      G      A
Psovke gomile djaka


/ponoviti sve/


-Solo-


Svi mravi tuguju
I meni je zao
Jer zbog svega sto je vidio
Mrav ce dospjeti u pakao     (2x)