Azra - A Sta Da Radim

Transkripcija: Igor Maric (razlomak@hotmail.com)
Album        : Singl Ploce '79-'82

intro : Hm Em Hm

	     Hm
A sta da radim
G       A          Hm
kad odu prijatelji moji
G        F#         E  G  F#    Hm
kad ode djevojka na koju bacam oci

(ovaj dio bolje zvuci kada sviras Em i Hm na sedmom pragu)

Em		    Hm
I tako redom dan za danom
Em                   Hm
na javnim mjestima s gitarom
Em                   Hm
naravno da uvijek netko dodje
F#                 Hm
da me cuje makar i kradom        Solo:(h, a, g,)

F#                 Hm
Nista mi vise nije vazno
A               D
Nasao sam dobar bend
Em            Hm            
Zelim samo da sviram 
	F#	      Hm
Da se otkacim i to je sve

A sta da radim
kad odu prijatelji moji
kad ode djevojka na koju  bacam oci

Em          Hm
Ljudi samo govore
Em          Hm
zasto si nervozan
Em          Hm
ljudi samo pricaju
Em          Hm
ne budi tako grozan
Em          Hm
ljudske usne sapuc'u
Em          Hm
sunjaj se ti kradom
Em          Hm
izbjegavaj nevolje
F#            Hm
skinut c'e ti glavu

Solo:
-|---------------------------------------------------------------------------
-|-------x17-14--------x15-12------------------------------------x17-14------
-|----x17-----------x15----------11-11-11-11-11-11------------x17------------
-|-x17-----------x15-------------------------------12------x17---------------
-|----------------------------------------------------14---------------------
-|---------------------------------------------------------------------------

-|---------------------------------------------------------------------------
-|-------x15-12-----------------------------------------12--15-12------------
-|----x15---------------------------11--------------x12-----------14-14p12---
-|-x15------------14b16r14-12-14b16----12--------x12-------------------------
-|----------------------------------------14---------------------------------
-|---------------------------------------------------------------------------

-|---------------------------------------------------------------------------
-|-------------------------12--15-12--------------------------------12--15-12
-|----11---------------x12-----------14-12-14-14/16-------------x12----------
-|-14----12---------x12--------------------------------------x12-------------
-|----------14-14------------------------------------------------------------
-|---------------------------------------------------------------------------
 
-|---------------------------------------------------------------------------
-|---------------------------------------------------------------------------
-|-14-14p12----11----------------------------------------11------------------
-|----------14----12--------12-14-14b16---16r14-12-14b16----12---------------
-|-------------------14-14-------------------------------------14------------
-|--------------------------------------------------------------------------- 

***VERZIJA 2***
Glazba      :  B.J.Stulic
Transkipcija:  Domagoj Danijel Maganjic (domagoj@uboot.com) & Danijel Divic


Vidija sam da ima neki solo ovdje ali nije uredu.Dosta su greske unutra. Evo vam tocan 
Solo od "A sta da radim" ako svirate iz H-Molla.

SOLO:
e|-x12--9--x12--7-------------------------|-x12--9--x12--7------------------------|
H|-x12-----x12-----7--7--7--^7--~7--------|-x12-----x12-----7--------^7--12-------|
G|-x12-----x12----------------------~7----|-x12-----x12--------9--7----------9----|
D|--------------------------------------9-|-------------------------------------9-|
A|----------------------------------------|---------------------------------------|
E|----------------------------------------|---------------------------------------|

e|-7--------10--7-------------------------|-7--------10--7------------------------|
H|----8------------7h-8p-7-----7----------|----8------------7h-8p-7-----7--7/12---|
G|-------9------------------9-----7-------|-------9------------------9------------|
D|-----------------------------------9--9-|---------------------------------------|
A|----------------------------------------|---------------------------------------|
E|----------------------------------------|---------------------------------------|

e|--7--------10--7--------------------------|
H|-----8------------7h-8p-7-----7-----------|
G|--------9------------------9-----7--------|
D|------------------------------------9--9--|
A|------------------------------------------|
E|------------------------------------------|

e|-----------------------------------------------------------------|
H|-----------^^7-----7---------------------------------------------|
G|-----7--9-------9-----9--~7--------------------------------------|
D|--9--------------------------9--x9--9--7--7--7-------------------|
A|------------------------------------------------10--9--7---------|
E|----------------------------------------------------------10--7--|

nadam da ce se vama svidati.Ciao