Azra - Balkan

Transkripcija: Bojan Miladinovic [bojankv@yahoo.com]


 Pesma se moze svrstati u legende YU-Rocka :)..
 Prvi deo uvoda se ponavlja kroz celu pesmu ali sa malim varijacijama 
  izmedju strofa i refrena..
 uostalom cujte pesmu :)..

	Legenda: :)
	
	h - Hammer   
	r - Release  
	b - Bend [saviti zicu]
	/ - Slide Up
	\ - Slide Down
	~ - Nek odzvanja
	()- Nota u zagradi moze i ne mora da se svira
	
Ako neko ne zna sta znaci sve ovo neka pogleda na www.skola-gitare.co.yu


Uvod (Strofa i Refren: Deo 1)

  Deo 1
     G                                Am                   
e||------------3----3----|-------3--------------|--0----0---------0----|
B||------------0----0----|-------0--------------|--1----1---------1----|
G||-------0--------------|--0--------------2----|------------2---------|
D||-------0--------------|--0--------------2----|------------2---------|
A||--2-------------------|------------0---------|----------------------|
E||--3-------------------|------------0---------|----------------------|

  C                                Em                                2x
------------0----0----|-------0--------------|--0----0---------0-----||
------------1----1----|-------1--------------|--0----0---------0-----||
-------0--------------|--0--------------0----|------------0---------*||
-------2--------------|--2--------------2----|------------2---------*||
--3-------------------|------------2---------|-----------------------||
--0-------------------|------------0---------|-----------------------||

  Deo 2
--7----7----6-/-7-----|------|--8-----8-----7-/-8-----|------|
--8----8----8-~~~-----|------|--10----10----10-~~~----|------|
--7----7----7-~~~-----|------|--9-----9-----9--~~~----|------|
----------------------|------|------------------------|------|
----------------------|------|------------------------|------|
----------------------|------|------------------------|------|
                                                            
--8-----8---------------|-------|--7----7----6-/7----|------|
--10----10--------------|-------|--8----8----8-~~~---|------|
--9-----9-----9----9\---|--0----|--7----7----7-~~~---|------|
------------------------|-------|--------------------|------|
------------------------|-------|--------------------|------|
------------------------|-------|--------------------|------|

--8-----8-----7-/-8-----|--8-----8----------||
--10----10----10-~~~----|--10----10---------||
--9-----9-----9--~~~----|--9-----9-----9----||
------------------------|-------------------||
------------------------|-------------------||
------------------------|-------------------||  Kraj Uvoda

Solo 1 (na violini; preradjeno za gitaru)

 Hammer-i mogu a i ne moraju da se sviraju..kako se kome svidja

e||-----------------10---------------------------------------10--10--------|
B||---------10--12------10h12--10-----------------10--10b12----------12--10|
G||--9--12-------------------------12--9--12--12---------------------------|
D||------------------------------------------------------------------------|
A||------------------------------------------------------------------------|
E||------------------------------------------------------------------------|

e||------------------------------------------------------------------------|
B||------------------------------------------------------------------------|
G||12--9--12--9h12-9h12--12-12------9-9--9------------12-------12-------14-|
D||-----------------------------12----------12--12h14----12h14----12h14----|
A||------------------------------------------------------------------------|
E||------------------------------------------------------------------------|

e||---------------------------------------------------------10-12-12-(12)--|
B||-------------------------------------------------(10)-12----------------|
G||------12-------12------(12)------12h14-14-14--14------------------------|
D||12h14----12h14----12h14----12h14----------------------------------------|
A||------------------------------------------------------------------------|
E||------------------------------------------------------------------------|

e||12(r10)-----------------------------------10h12-12-10h12-12-10h12-12----|
B||--------12-10-----------------------------------------------------------|
G||--------------12--9(h12)-12-12----9-9--9--------------------------------|
D||-------------------------------12---------------------------------------|
A||------------------------------------------------------------------------|
E||------------------------------------------------------------------------|

E||10h12-12-10h12-12-10h12-12-10h12-12-10h12-12-15--15-15-15--12h15-15-----|
B||------------------------------------------------------------------------|
G||------------------------------------------------------------------------|
D||------------------------------------------------------------------------|
A||------------------------------------------------------------------------|
E||------------------------------------------------------------------------|

E||12h15-15-12h15-15-12h15-15-12h15-15-15-15-15-15-15-15--(10/)12-12-12-12-|
B||------------------------------------------------------------------------|
G||------------------------------------------------------------------------|
D||------------------------------------------------------------------------|
A||------------------------------------------------------------------------|
E||------------------------------------------------------------------------|
                                                                 Solo 1:Kraj
Zatim sledi varijacija drugog dela uvoda:
--7----7----7----7----|------|--8-----8-----8-----8---|------|
--8----8----8----8----|------|--10----10----10----10--|------|
--7----7----7----7----|------|--9-----9-----9-----9---|------|
----------------------|------|------------------------|------|
----------------------|------|------------------------|------|
----------------------|------|------------------------|------|

--8-----8---------------|-------|--7----7----7----7--|------|
--10----10--------------|-------|--8----8----8----8--|------|
--9-----9-----9----9\---|--0----|--7----7----7----7--|------|
------------------------|-------|--------------------|------|
------------------------|-------|--------------------|------|
------------------------|-------|--------------------|------|
                                                
--8-----8-----8----8----|--8-----8----------||
--10----10----10---10---|--10----10---------||
--9-----9-----9----9----|--9-----9-----9----||
------------------------|-------------------||
------------------------|-------------------||
------------------------|-------------------||

Drugi solo uskoro, vrlo uskoro :)


***VERZIJA 2***
Transkripcija:Sasa (goma@pop.transit.ru)
Home         :http://yurope.com/people/sen/The.Book.Of.Home/akordi


G           Am          C         Em
Jednog dana nema me, da nikada ne dodjem,
G          Am            C            Em
prijatelje koje znam, ne poznajem kad prodjem.

Kao da me nikada, na svijetu nije bilo,
kao da me njezino, tijelo nije htilo,

Moja pjesma miruje, a furala bi furke,
lijepe dekle moderne, ne padaju na zurke.

Brijem bradu, brkove, da licim na "pankrte",
jos da imam fendera, vidio bih svirke.

G        Am       C       Em
Balkane, Balkane, Balkane moj,
G       Am       C        Em
budi mi silan, i dobro mi stoj!

Mi smo ljudi, Cigani, sudbinom prokleti,
uvijek neko oko nas dodje pa nam prijeti.

Ni bendovi nisu vise, kao sto su bili,
i moj se amaterski priprema da snimi.

Balkane, Balkane, Balkane moj,
budi mi silan i dobro mi stoj!

***VERZIJA 3***
Transkripcija: Igor   razlomak@hotmail.com


BASS:
tema kroz strofe:
   G      a       C      e
G|---------------------------------
D|---------------------------------
A|-----5-3--2-0---3--3-2-----------
E|-3---------------------0----0-2--

tema kroz refren:
   G      a       C      e
G|---------------------------------
D|---------------------------------
A|--------0-------3----------------
E|-3---------------------0----0-2--