Azra - Voljela Me Nije Nijedna

Transkripcija: Davor Tomic (tomicd2@tiger.uofs.edu)
Poslao       : Goran Maric (goranm_sa@hotmail.com)
Home         : http://academic.scranton.edu/student/TOMICD2


Uvod:
          D  C
e------------------------------------------------------------------
H--20-----20-17--------17-------------------------------------20-17
G-------------------19--------19--16-19-16--19---16-----16-19------
D----------------------------------------------------19------------
A------------------------------------------------------------------ 
E------------------------------------------------------------------
                
a onda dva puta:      
   Em                 G               D              Em 
e-------------------------------------------------------
H--12-10-12-10-8-7----8-7-8-7-5-------7-5-7-5---------5-
G-------------------------------7--------------7-6-7----
D-------------------------------------------------------
A-------------------------------------------------------
E------------------------------------------------------- 

Em                    G 
Kako sam rodjen gdje to 
D                  A 
zasto smo dosli da ovdje zivimo 
Em                   G 
mogu li nauciti bilo sto 
D                        A 
na znajuci nista hocu li biti ponovo.  

 
Em         G 
To sto sam bio to sad 
     D           Em 
crna zemlja pokriva 
Em         G 
to sto bih bio nebo zna 
     D              Em      G  D  A 
voljela me nije nijedna. 

Ruina, nistavilo (to sam ja) 
sto je to covjek sretna mogucnost izbora 
ali tko je ona ili tko sam ja 
uglavnom to mi sada zivot racun dostavlja. 

Kako sam rodjen gdje to 
hocu li biti ponovo 
to sto sam bio nebo zna 
voljela me nije nijedna. 

Zaljubio se , obljubio je (to je to) 
Imao srece dobio sto god trazio (voljela me) 
ali tko je ona ili tko sam ja 
ili kako sve to skupa mili brate izgleda. 

To sto sam bio to sad 
crna zemlja pokriva 
to sto bih bio nebo zna 
pa nek odgonetava 
voljela me nije nijedna. 


***VERZIJA 2***
Transkripcija: WildChild

Uvod:
e|--12---15-12----12-----------------------15--12-|
B|-------------15-----15-12-15-12----12-15--------|
G|--------------------------------14--------------|
D|------------------------------------------------|
A|------------------------------------------------|
E|------------------------------------------------|

e|-12--10-12--10-------------------------------------------------------|
B|---------------12-10--12--10-12--10----------------------------------|
G|------------------------------------12-11-12--11-12--11--9--7--7--9--|
D|---------------------------------------------------------------------|
A|---------------------------------------------------------------------|
E|---------------------------------------------------------------------|
Drugi dio x2 (dva puta)


***VERZIJA 3***
Transkripcija: alko roker

Gitara D C                            
                     
Em                          Em
--12~---------------|----15--12--------------------------|
--------------------|-----------15-12--15--12------------|
--------------------|--------------------------14h12-----|
--------------------|--------------------------------14--|
--------------------|------------------------------------|
--------------------|------------------------------------|

----------------------------------|
----------------------------------|
--12~---------------------12------|
--------14h12-----12--14------14~-|
--------------14------------------|
----------------------------------|

 pratnja za harmoniku: Em G D Em

a onda ide ovo:  
------------------------|------------------------|------------------------|
------------------------|------------------------|------------------------|
------------------------|------------------------|------------------------|
--2----2----2--0-----0--|--2----2----2--0-----0--|--2----2----2--0-----0--|
------------------2-----|------------------2-----|------------------2-----|
------------------------|------------------------|------------------------|

------------------------|------------------------|---------------------|
------------------------|------------------------|---------------------|
------------------------|------------------------|---------------------|
--2----2----2--0-----0--|--2----2----2--0-----0--|--2----2----5--------|
------------------2-----|------------------2-----|------------5--------|
------------------------|------------------------|------------3--------|

----------------------|----------------------|------------------------|
--------7------7------|--------2------2------|------------------------|
--------7------7------|--------2------2------|------------------------|
--0--0--7------7------|--------2------2------|--2----2----2--0-----0--|
--------5------5------|--0--0--0------0------|------------------2-----|
----------------------|----------------------|------------------------|

---------------------|----------------------|----------------------|
---------------------|--------7------7------|--------2------2------|
---------------------|--------7------7------|--------2------2------|
--2----2----5--------|--0--0--7------7------|--------2------2------|
------------5--------|--------5------5------|--0--0--0------0------|
------------3--------|----------------------|----------------------|

refren:
-------------------|-------------------|-------------------|--------|
-------------------|-------------------|-------------------|--------|
-------------------|-------------------|--7----------------|--------|
--2----------------|--5----------------|--7----------------|--2-----|
--2----------------|--5----------------|--5----------------|--2-----|
--0----------------|--3----------------|-------------------|--0-----|

-------------------|-------------------|-------------------|--------|
-------------------|-------------------|-------------------|--------|
-------------------|-------------------|--7----------------|--------|
--2----------------|--5----------------|--7----------------|--------|
--2----------------|--5----------------|--5----------------|--------|
--0----------------|--3----------------|-------------------|--------|

mali solo :
------0~-----------|------------------------|-------------------------|
-------------------|------0----0------------|-------------------------|
-------------------|-------------2-0--2--0~-|-------------------0-----|
-------------------|------------------------|------2h0----0--2-----2~-|
-------------------|------------------------|----------2--------------|
-------------------|------------------------|-------------------------|

solazica harmonikom:
------12--12------12--15--------|--------------------------------|
--15b---------15b-----------15r-|----12----------15--12----------|
--------------------------------|--------14--12----------14--12--|
--------------------------------|--------------------------------|
--------------------------------|--------------------------------|
--------------------------------|--------------------------------|

--------------------------------------|--------------------|---------------|
--------------------12~---------------|--------------------|---------------|
--14h12-----12--14------14--12--14h12-|--------------------|---------------|
--------14----------------------------|--14~---------------|--2------------|
--------------------------------------|--------------------|--2------------|
--------------------------------------|--------------------|--0------------|

zadnja solazica:
------------------------|--------------------------|-----------------------|
--8----8----8-----------|--8-----------------------|-----------------------|
---------------9--7--9--|-----9--7-----9--7--------|-----------------------|
------------------------|-----------9--------9--7--|--9--7-----------------|
------------------------|--------------------------|--------10--7----------|
------------------------|--------------------------|-----------------------|

glavni solo sa steal guitarom nije tezak pa izvolite....