Babe - Cesemo Se

Transkripcija: Milan Petrovic (comi011@beotel.net)


       G   G6/A   C    G6  Aadd11  Asus2/D   Dsus2    
  e----3----0-----0----0-----00------0--0------0---0---0---00----------]
  H----3----0-----1----0-----22------0--2------3---2---0---22----------]
  G----0----0-----0----0-----22------2--2------2---2---2---22----------]
  D----0----0-----2----0-----00------0--0------0---0---0---00----------]
  A----2----0-----3----------00---------0----------0-------00----------]
  E----3---------------------------------------------------------------]

       G   G6/A  C    G6/A   G                       
  e----3----0----0-----0-----3-----------------------3------------]
  H----3----0----1-----0-----3----3/88-55-33-00------3------------]
  G----0----0----0-----0-----0------------------0-0--0------------]
  D----0----0----2-----0-----0-----------------------0------------]
  A----2----0----3-----0-----2-----------------------2------------]
  E----3---------------------3-----------------------3------------]

      G  G6/A A  G6/A C  G6/A E     E     G     A     C     D   
  e---3---0---0---0---0---0---0--]--0-----3-----0-----0-----2------]
  H---3---0---2---0---1---0---0--]--0-----3-----2-----1-----3------]
  G---0---0---2---0---0---0---1--]--1-----0-----2-----0-----2------]
  D---0---0---2---0---2---0---2--]--2-----0-----2-----2-----0------]
  A---2---0---0---0---3---0---2--]--2-----2-----0-----3------------]
  E---3-----------------------0--]--0-----3------------------------]


***VERZIJA 2***
Transkripcija: TokYO!(BGLiens&Insomnia)tboi@onebox.com
Home         : http://2akordi.net


Uvod : A,D,H 


    Fis          H                 Cis              H  
Stojimo na cosku pljujemo po svima na pamet sto nam padaju
A svima nam se sere kad spomenemo one sto ovim svetom vladaju
Pluca su mi puna opojnoga dima bubreg,slepoocnice
Nalivam se pivom,smejem se ko blesav vise nego kocnice


  Fis  C(bare)   Cis    D(bare)
Ullaa  laalaa   laalaa  laalaa    


 A(bare)    D(bare)     H
Smejemo se kasljemo na smenu       I
Al je jaka mamicu joj njenu        I
Kada bi ljudi mogli to da shvate   IRefren
Uzgajivajivali bi umesto salate    I

Prilaze nam klinci obrijanih glava u kesu snazno duvaju
Sigurno je jedno da na lepak smrdi kada se upuvaju 
Konstatujem glasno bice dobra shorka od cosak flase lomimo
Klinci ce veceras da naguze cvorka kad ih pripitomimo

Fis  C(bare)   Cis    D(bare) 
Ullaa laa laaa laa laa laaaaa


Dal je jaci lepak ili trava        I
I od cega vise boli glava          I
Lepte klinci oko nas ko vrapci     IRefren
Nesto su mi otezali kapci          I


Udarac u glavu tako mi se pada,al` me noge drze jos
pogledam u muda vidim zvezde svuda ovaj mali nije los 
Cujem cvrkut ptica okrvavljenog lica spustam se na guzicu
Sta je bilo juce ljudi ja sam kuce stavite mi uziiiicuu...


Ullaa laa laaa laa laa laaaaa


Previjamo se po trotoaru           I
Bumbar Maru natako na vrbe         I
Ala gadno ovi klinci biju          I Refren
Doktori ce nocas da nas siju       I

 ........ itd. mrzi me dalje da pisem ....

U refrenu i u uvodu postoje dve male solaze :

Prva :
E----------------------------
A----------------------------
D----------------------------
G----------------------------
H--44-2-4-4s5-4-2--2p42------
E----------------------------

Druga :
E----------------------------
A----------------------------
D----------------------------
G----------------------------
H--66-55-44-s3---------------
E----------------------------