Babe - Da Te Vidim Golu

Transkripcija: Igor Besermenji (besermenji@yahoo.com)
Home         : http://2akordi.net



       G               C
Ako me volis, dokazi to i ne uzimaj za zlo
            G    F           C  G
Sto sam brz bio, kratko te ljubio.
U tvome oku ne vidim sjaj, slutim i na skori kraj.
Bas mi se ne da, djavo me ujeda.

G		     
Da te vidim golu  ( daj da te vidim golu ) 
C
na severnom polu ( na severnom polu ) 
G                  F          C  G
Da te vidim golu, to sam pozeleo.

Ti si za mene svetinja, ustvari si avetinja.
Ne budi takva vestica opaka.
U noci punog meseca, strah mi dusu preseca.
Srce mi kalnu na tebe brutalnu.

Da te vidim golu ( daj da te vidim golu ) 
na severnom polu ( na severnom polu )
Da te vidim golu, to sam pozeleo.
        
***VERZIJA 2***
Transkripcija: mirojko


Akordi: G, C, G, F, C, G

INTRO:

 h - hammer on
 p - pull off
 b - bend
 r - release bend

|-----------------------|
|-----------------------|
|-/4-----4--4--4--4-4-4-|
|-----------------------|
|-----------------------|
|-----------------------|

 G
|----------------------------------|----------------------------------|
|----------------------------------|----------------------------------|
|-0-----------4---5---4---2---4----|-----0---0---4---5---4h5p4-2---0--|
|----------------------------------|----------------------------------|
|----------------------------------|----------------------------------|
|----------------------------------|----------------------------------|
 C
|-----------0---1---0h1p0-----0----|---------0---1---0h1p0------------|
|-1-----------------------3--------|-1---1-----------------3---1------|
|----------------------------------|----------------------------------|
|----------------------------------|----------------------------------|
|----------------------------------|----------------------------------|
|----------------------------------|----------------------------------|
 G                                           F           C
|----------------------------------|----------------------------------|
|----------------------------------|----------------------------------|
|-0-----------4---5---4---2---4----|-------------2--------------------|
|----------------------------------|---------3-------3---5---5--------|
|----------------------------------|----------------------------------|
|----------------------------------|----------------------------------|
 G
|----------------------------------|----------------------------------|
|----------------------------------|----------------------------------|
|-2b(4)---2---0h2p0---0------------|---------0---2p0------------------|
|-------------------3--------------|-0---2-----------2---0------------|
|----------------------------------|----------------------------------|
|----------------------------------|----------------------------------|

       G               C
Ako me volis, dokazi to i ne uzimaj za zlo
            G   F          C    G
Sto sam brz bio, kratko te ljubio.
U tvome oku ne vidim sjaj, slutim i na skori kraj.
Bas mi se ne da, djavo me ujeda.

G                 C
Da te vidim golu, na severnom polu
G                 F        C   G
Da te vidim golu, to sam pozeleo.

Ti si za mene svetinja, ustvari si avetinja.
Ne budi takva vestica opaka.
U noci punog meseca, strah mi dusu preseca.
Srce mi kalnu na tebe brutalnu.

Da te vidim golu, na severnom polu
Da te vidim golu, to sam pozeleo.

Da te vidim golu, na severnom polu
Da te vidim golu, to sam pozeleo.