Babe - Ko Me Ter'o

Home    : Muzicka Uvertira


Am        G              C   E
Sticajem cudnih okolnosti
dok sam tonuo u dosadu
ruku spasa si mi pruzila
Am         G          Am  G
time si me ti zaduzila

Znao sam da si prevrtljiva
i na onu stvar nasrtljiva
o tebi sam cuo zao glas
kako posrnes za tili cas

(ref)
Am               G
Ko me ter'o da te volim
      C  E
Ko me tero

Majka mi je lepo branila
da iz kuce izlazim tad ja
ali ja je nisam slushao
tebe sam te nochi probao

Morao sam tebe probati
morao sam jer sam bio lud
morao sam sebe kazniti
morao sam nisam imao kud

***VERZIJA 2***
Transkripcija: ???

Intro:
E--7--------------------------------------------------------------
H----7--------------------------------------7---------------------
G------7-------6-8-11-11s12s11--11s12s10-11---7----6-7-6-4--6s5---
D--------9--7-----------------------------------9-7-------------4-
A-----------------------------------------------------------------
E-----------------------------------------------------------------

***VERZIJA 3***
Transkripcija: InFeCtOr
Info         : Treba samo na nekim mjesima ubiciti malo hamera i 
               slide-a, meni je bilo mrsko pisati. Nadam se da ne 
               zvuci mnogo lose.

E--7----------------------------------7-----------------------------------|
H----8-7--------------------------------8-7-------------------------------|
G--------9-8-9-12-10-10-9-9-10-9-7-9--------9-8-9-12-11-9-9-7-7-9-11-9-7-9|
D-------------------------------------------------------------------------|
A-------------------------------------------------------------------------|
E-------------------------------------------------------------------------|

***VERZIJA 4***
Transkripcija: Carobnjak

Zadnji dijelovi sola:drzite ton d tj 3 zica 7 polje i svirate hammer on 
i pull off.Npr 10p9 znaci da drzite ton 9 a pustate 10!
Hvala, nadam se da je tacno.

UVOD:
-|-6/7-----------------------|--------------|------------------------
-|-----8-7-------------------|--------------|------------------------
-|---------9-8-9/12\--10-10-9|-7h9h10p9p7h9-|------------------------
-|---------------------------|--------------|------------------------
-|---------------------------|--------------|------------------------
-|---------------------------|--------------|------------------------
           
-|-6/7---------------------|---------------|-------------------------
-|-----8-7-----------------|---------------|-------------------------
-|---------9-8-9/12-11-11-9|-77h9h11p9p7h9-|-------------------------
-|-------------------------|---------------|-------------------------
-|-------------------------|---------------|-------------------------
-|-------------------------|---------------|-------------------------
                                                                      
***VERZIJA 5***
Transkripcija: Anthony (milosmaksic@yahoo.com)


   Hm      A       D   F#
E--7-------------------------
B----7---------5-8-7h8p7p5h7-
G------7-----6---------------
D--------9-7-----------------
A----------------------------
E----------------------------

   Hm      A       Hm   A
E--7--------------------------------
B----7---------5--------------------
G------7-----6---6----------7-------
D--------9-7-------9----7h9---9-7h9-
A-----------------------------------
E-----------------------------------

Hm          A          D F#
Sticajem cudnih okolnosti,
Hm          A       D F#
dok sam tonuo u dosadu,
Hm         A          D F#
ruku spasa si mi pruzila,
Hm         A        Hm A
time si me ti zaduzila.

Znao sam da si prevrtljiva,
i na onu stvar nasrtljiva,
o tebi sam cuo zao glas,
kako posrnes za tili cas.

A       Hm         A
  Ko me tero da te volim
        D F#
  ko me tero,
        Hm         A
  ko me tero da te volim.
        Hm  A
  Ko me tero.

Majka mi je lepo branila
da iz kuce izlazim tad ja,
ali ja je nisam slusao,
tebe sam te noci probao.

Morao sam tebe probati,
morao sam jer sam bio lud,
morao sam sebe kazniti,
morao sam nisam imao kud.

***VERZIJA 6***
Transkripcija: Bookey (dontask_scg@yahoo.com)
Poslao       : Bookey


/=slide up
p=pull of
h=hammer on

Am: 577555
 G: 133211
 C: 335553
 E: 779997 / E: 0221000 (Kako vam je volja, ali mislim da je lepse bare...)


INTRO: 
   Am           G                 C           E
E|--5-----------|------------3--|-------------------|
H|-----5--------|---------3-----|--6-6-5-5h6p5p3-5--|
G|--------5-----|------4--------|-------------------|
D|-----------7--|--5------------|-------------------|
A|--------------|---------------|-------------------|
E|--------------|---------------|-------------------|

   Am           G             Am                 
E|--5-----------|-----------------|-------------------|
H|-----5--------|-----------------|-------------------|
G|--------5-----|---4-4h5-4h5p4-2-|-----------5-------|
D|-----------7--|-5---------------|-------5h7---7-5-7-|
A|--------------|-----------------|---/7--------------|
E|--------------|-----------------|-------------------|

   Am              G              C            E
E|--5------------|------------------|-----------------|    \
H|-----5-----5h6-|-6/8---8-6--6-6p5-|-5h6p5p3-5-------|     \
G|--------5------|------------------|-----------------|      \
D|---------------|------------------|-----------------|       \ 
A|---------------|------------------|-----------------|        \
E|---------------|------------------|-----------------|         \         
								 \	Za ovaj deo nisam bas siguran, 
                                                                 /   mislim 
    Am           G             Am                               /    da idu
E|--5-----------|-----------------|-------------------|        /     dve gitare
H|-----5--------|-----------------|-------------------|       /
G|--------5-----|---4-4h5-4h5p4-2-|-----------5-------|      /
D|-----------7--|-5---------------|-------5h7---7-5-7-|     /
A|--------------|-----------------|---/7--------------|    /
E|--------------|-----------------|-------------------|   /


Am          G          C   E
Sticajem cudnih okolnosti,
Am          G       C   E
dok sam tonuo u dosadu,
Am         G          C   E
ruku spasa si mi pruzila,
Am         G        Am  G
time si me ti zaduzila.

Znao sam da si prevrtljiva,
i na onu stvar nasrtljiva,
o tebi sam cuo zao glas,
kako posrnes za tili cas.

G       Am         G
  Ko me tero da te volim
        C  E
  ko me tero,
        Am         G
  ko me tero da te volim.
        Am  G
  Ko me tero.

Majka mi je lepo branila
da iz kuce izlazim tad ja,
ali ja je nisam slusao,
tebe sam te noci probao.

Morao sam tebe probati,
morao sam jer sam bio lud,
morao sam sebe kazniti,
morao sam nisam imao kud.


***VERZIJA 7***
Transkripcija: CoA_86 (coacoa86@hotmail.com)

Uvod:
   Am           G         C           E
E|------5-------------------------------|
H|-----5--5-----------6-6-6p5-5h6p5---5-|
G|----5-----5-----4-7---------------7---|
D|---7--------7-5-----------------------|
A|--7-----------------------------------|
E|-5------------------------------------|
   Am           G         Am
E|------5----------------------------------|
H|-----5--5--------------------------------|
G|----5-----5-------4-5-4----------5-------|
D|---7--------7-5-7-------7----5-7---7-5-7-|
A|--7-----------------------/7-------------|
E|-5---------------------------------------|

Solo:
E|---------------------------------------------------------------|
H|------------------------8--------------------------------------|
G|--------5---5-7-7^9-7^9~~~9^7-5-7-7^9*-7-5^6^5-4-5-5-4h5p4---5-|
D|----5-7---7------------------------------------------------7---|
A|-/7------------------------------------------------------------|
E|---------------------------------------------------------------|

E|--------------------------------------|
H|-/10-/12-/13-/15-/17-17~~~~-17~~~~~~~-|
G|--------------------------------------|
D|--------------------------------------|
A|--------------------------------------|
E|--------------------------------------|

E|-------------------------------------|----------------------|
H|-20^22---20-20^22-20^22---20^22~~~~~-|-20-20^22^20-17----17-|
G|-------------------------------------|----------------19----|
D|-------------------------------------|----------------------|
A|-------------------------------------|----------------------|
E|-------------------------------------|----------------------|

E|-------------------------------------------|
H|-------------------------------------------|
G|-/14-14-12-11------------------------------|
D|--------------15-14-12----*12*-12----------|
A|-----------------------15---------15-12-15-|
E|-------------------------------------------|

E|--------------------------|-5-----------------|-----------|
H|--------------------------|---5---------------|-----------|
G|--------------------------|-----5-----4-5-4---|-----------|
D|----------12----12--14~~~-|-------7-5-------7-|------*7*--|
A|-15-14-15----15-----------|-------------------|--*7*------|
E|--------------------------|-------------------|-----------|