Babe - Slanina

Transkripcija: Ivan Djacic (djacic@yahoo.com)
Home         : http://2akordi.net


uvod: Em A F#, D, G, Hm

ref:
      Hm                  D 
Lizem te, lizem te, lizem te a
      G         F#        Hm
Lizem te, lizem te, lizem te

      Hm        A          D
Majka sinu sece luk i slaninu
     G           F#     Hm
Pazi snaga ti na usta ulazi
Posle sine popni se na planinu
I sa te planine ti ne silazi

G             A
Sto dalje sto vise
         D    F#   Hm
Tamo gde samo suma dise
   G                F#
Na nebu zvezde vide se
D      F#       Hm
Nicega ne stide se

< uvod >
< ref >

Na planini sine nadji devojku
Koja ce ti puno dece roditi
I u kuci i na cistom vazduhu
S njom ces moci sine ljubav voditi

Kad padaju kise 
A vi se ljubite jos vise
A priroda ce slaviti 
Sunce se pojaviti 

< ref >

Mon Amour!

                 ^  ^
/--------------( *  * )---------------\
|=====================================|
|        < DjAkOn   StRaSnI >         |
|          djacic@yahoo.com           |
\-------------------------------------/
        


***VERZIJA 2***
Transkripcija: Gorjan Petkovic (gorjan_bl@yahoo.com)
Home         : http://2akordi.net


uvod: Em A F#, D, G, Hm

E|--12----10----9----------------------|---------------------------|
B|-------------------12----10----------|---------------------------|
G|-------------------------------12----|--12/11-11~--------------9-|
D|-------------------------------------|----------------------12---|
A|-------------------------------------|---------------------------|
E|-------------------------------------|---------------------------|

    -----------------------------|---------------------|
    -----------------------------|--12~----------------|
    --11~-----9-11-12~-----11-12-|--------------------*|
    -----------------------------|--------------------*|
    -----------------------------|---------------------|
    -----------------------------|---------------------|

ref:
      Hm        A         D
Lizem te, lizem te, lizem te a
      G         F#        Hm
Lizem te, lizem te, lizem te


tema kroz refren i strofe:
E|----------------------------|----------|----------------------------|
B|----------------------------|----------|----------------------------|
G|----------------------------|----------|----------------------------|
D|--------0--2-2h4--4--4h2-0--|----------|----------------------------|
A|--2--2----------------------|--2-------|---------2---------------1--|
E|----------------------------|-----2----|--3--3h5----3--2--2--2h3----|

    -------------------|
    -------------------|
    ------------------*|
    ------------------*|
    --2----------------|
    -------------------|