Babe - Slike Sna I Jave

Transkripcija: lector


            Bm           F#
U tvojim ocima odraz mog lika
             G
toliko blizu smo,
            F#             F
i tvoje oci plave mame uzdisaj.
           Bm                  F#
Lancem dogadjanja vezani smo u cvor
              Bm
u slike sna i jave.


Refren:
         Bm
Zaustavi dah, izbroj do 100
         G
zaustavi strah od nepoznatog
            Bm
ne disi dok vreme k'o pesak protece
       A
nikome ne daj da pokvari vece
         Bm     F#     Bm
zaustavi sve, zaustavi sve.


Izgorecemo mi u plamenu strasti
a nas ce pepeo vetrovi nositi putevima slave.
Stavicu ti na prst zlatan prsteni stih
u slike sna i jave.


Refren:
         Bm
Zaustavi dah, izbroj do 100
         G
zaustavi strah od nepoznatog
            Bm
ne disi dok vreme k'o pesak protece
       A
nikome ne daj da pokvari vece
         Bm     F#     Bm
zaustavi sve, zaustavi sve.


Tema:

*  Gitara 1
** Gitara 2

*                                    Hm
E||-------------------------------|---------------10--9--7--|
B||----------------------8--------|--7----------------------|
G||-------------------7-----------|-------------------------|
D||------------9-9-9--------------|-------------------------|
A||-------------------------------|-------------------------|
E||-------------------------------|-------------------------|
**
E||-------------------------------|-------------------------|
B||-------------------------------|-------------------------|
G||-------------------------------|-------------------------|
D||-------------------------------|-------------------------|
A||-------------------------------|-------------------------|
E||-------------------------------|-------------------------|


*    G                               Hm
E||---------------7--5------------|-------------------------|
B||--8------------------8---------|--7------------7--5------|
G||-------------------------------|---------------------7---|
D||-------------------------------|-------------------------|
A||-------------------------------|-------------------------|
E||-------------------------------|-------------------------|
**
E||-------------------------------|-------------------------|
B||---------------8--8--7---------|-------------------------|
G||-------------------------------|--7------------7--6------|
D||-------------------------------|---------------------9---|
A||-------------------------------|-------------------------|
E||-------------------------------|-------------------------|


*    A                              Hm  F#m Hm
E||-------------------------------|-------------------------|
B||--5-------------5--7-----------|----------------------8--|
G||----------------------7--------|-------------------7-----|
D||-------------------------------|-9---7---9------9--------|
A||-------------------------------|-------------9-----------|
E||-------------------------------|-------------------------|
**
E||-------------------------------|-------------------------|
B||-------------------------------|-------------------------|
G||--6-------------6--7-----------|----------------------9--|
D||----------------------7--------|--9--7--9-------9--9-----|
A||-------------------------------|-------------9-----------|
E||-------------------------------|-------------------------|


*   Hm                               G
E||---------------10--9--7--------|---------------7--5------|
B||--7----------------------------|--8------------------8---|
G||-------------------------------|-------------------------|
D||-------------------------------|-------------------------|
A||-------------------------------|-------------------------|
E||-------------------------------|-------------------------|
**
E||-------------------------------|---------------7--7--7--9|
B||---------------7---------------|---------------8--8--7---|
G||--7---------------9--7---------|------------------------9|
D||-------------------------------|--9----------------------|
A||-------------------------------|-------------------------|
E||-------------------------------|-------------------------|


*   Hm                               A
E||-------------------------------|-------------------------|
B||--7------------7--5------------|--5-------------5--7-----|
G||---------------------7---------|----------------------7--|
D||-------------------------------|-------------------------|
A||-------------------------------|-------------------------|
E||-------------------------------|-------------------------|
**
E||-10-10--12-12--10-10-----------|-9-9--10-10--9-9---------|
B||------12-----12-----12---------|----10-----10---10-------|
G||-------------------------------|-------------------6-7---|
D||----------------------12-11-9--|-----------------------7-|
A||-------------------------------|-------------------------|
E||-------------------------------|-------------------------|


*  Hm  F#m  Hm
E||------------------------------||
B||----------------------8-------||
G||-------------------7----------||
D||-9---7---9------9-------------||
A||-------------9----------------||
E||------------------------------||
**
E||--7--7--7--5--5--5---7--------||
B||------------------------------||
G||------------------------------||
D||--9--------7---------9--------||
A||------------------------------||
E||------------------------------||