Bajaga - Bademi I So

Transkripcija: Zarko Cvetojevic (zarkomd@sezam.net)


* Gitaru nastimati pola stepena vise (a moze i bez )


Prva strofa i uvod. RAzlaganje na gitari
||------------------------------------|
||--2-2-2-2--------2-------2------(2)-|
||--2-2-2-2------2-------2-------2----|  x2
||--2-2-2-2----2-------2-------2------|
||--4-4-3-2--0-------0-------0------0-|
||------------------------------------|
pa onda
||---------------------------------------------------------------|
||-----------------0-----0--3----------3-3-3-3--------2------(2)-|
||---------------1------1---1-----(1)--1-1-1-1------2-------2----|
||-------------2------2-----2---(2)----2-2-2-2----2-------2------|
||--0-0-2-3--2------2-------2----------2-2-2-2--0-------0-------0|
||---------------------------------------------------------------|


A
Iznenada noc se spustila,
A
preko krova, pa u dvoriste,
              E
prve zvezde cim se pojave
             A
u tvom oku nadju skrovite

opet mi je krenulo
tamo kuda idem nocima
da se sklonim i da slucajno
potonem u tvojim ocima

C#7                   F#m7
  i krene sve isto ko pre

u kratkim talasima
C#7              F#7    E
  i osetim da dolazi plima.

napolju je vreme pogresno
skoro da me i ne zanima
ja bi stobom negde otisao
pa bi tamo bili danima

C#7                   F#m7
jer ti nosis to, bademe i so

i u oku zrake sunca
C#7                   F#m7
ti oteras sve hladne talase

da ne stignu do mog srca

C#7                   F#m7
kada dan je dug mirises na jug

i sve na dobro krene
C#7              F#7    E
jer ti nosis to bademe i so.