Bajaga - Dobro Jutro

Transkripcija: Goran Stefanovic (profa@tesla.rcub.bg.ac.yu)
Poslao       : Goran Stefanovic (profa@tesla.rcub.bg.ac.yu)
Home         : http://members.xoom.com/yutablature



[Uvod i razlaganja u toku pesme]
Koristi kapo na prvom pragu (ili nastimuj gitaru za pola stepena vise)

    D#sus2  D#sus2/G D#sus2 A#sus4
F---------0-------0-------0-------0-|
C-------3-------3-------3-------3---|
G#----2-------2-------2-------2-----|  2X
D#--0---------------0---------------|
A#--------------------------0-------|
F-----------3-----------------------|


[Strofa 1]
D#sus2     D#sus2/G D#sus2    A#sus4
     Dobro jutro,   ovo iznad nas je nebo
D#sus2      D#sus2/G D#sus2        A#sus4
     Zna da bude     kad je suncan dan
D#sus2      D#sus2/G D#sus2     A#sus4
     Svetlo plavo,   bistro duboko i vedro
D#sus2     D#sus2/G D#sus2     A#sus4
     Suncu staza    a zvezdama stan


[Strofa 2]
Dobrodosli ova pesma to su ptice
Zatrepere kad je mesec pun
Lete nebom i pevaju kada svice
Perje, krila ??? kljun


[Akordi]
D#sus2   D#sus2/G   D#sus2   A#sus4   2X


[Solo]
D#sus2 D#sus2/G D#sus2  A#sus4    D#sus2 D#sus2/G D#sus2  A#sus4
   |   .   |   .   |   .   |   .     |   .   |   .   |   .   |   .   
E------5-7---3---2---2-3-2---------|-----5-7---3---2---2-3-2---------|
B------7-8---5---3---3-5-3-5-3-2h3-|-----7-8---5---3---3-5-3-5-------|
G--------------------------6-4-2---|-------------------------6-------|
D----------------------------------|---------------------------------|
A----------------------------------|---------------------------------|
E----------------------------------|---------------------------------|


D#sus2 D#sus2/G D#sus2  A#sus4    D#sus2   D#sus2/G   D#sus2    A#sus4
   |   .   |   .   |   .   |   .     |     .   |     .   |     .   |   .
E------5-7---3---2---2-3-2---------|------------------------------------|
B------7-8---5---3---3-5-3-5-3-2h3-|-2s3---3---2s3---3---2s3-3-3-2------|
G--------------------------6-4-2---|-2---------2---------2---2-2-2-2----|
D----------------------------------|-------------------------------2----|
A----------------------------------|------------------------------------|
E----------------------------------|------------------------------------|


[Strofa 1]


[Strofa 3]
Dobrodosli pozdravlja vas divlje cvece
Sladak miris ima svaki cvet
Strast i ljubav, zuje pcele opijene
To je ono sto pokrece svet


[Akordi]

[Solo]

[Strofa 1]

[Strofa 2]


Akordi:
D#sus2:   x x 0 2 3 0
D#sus2/G: 3 0 0 2 3 0
A#sus4:   x 0 2 2 3 0