Bajaga - Gospod Brine

Transkripcija:  Sasa - krle16@yahoo.com 
Album        : Zmaj od Nocaja



  D            G   
Ja sam morski pesak
  Hm        A  
ti si beli sneg
 D           G
desio se tresak
  Hm      A
umalo i beg

Kad te vetar
uveo u film
usla si u sobu
i povukla dim

Prekomorski pesak
sisao na drum
ukrala mi dusu
okrenula um

kao da te vetar
uveo u film
usla si u sobu
i povukla dim

  D    G   
Da se zemlja vrti
Hm    A       
to se Gospod brine
 D     G         Hm    A  
mocne ljude muce brda i doline

sto je muka moja
zrno od problema
sto mi srce stoji
stoji kad te nema

Ja sam morski pesak
ti si beli sneg
desio se tresak
umalo i beg

Kad te vetar
uveo u film
usla si u sobu
i povukla dim

Da se zemlja vrti
to se Gospod brine
mocne ljude muce brda i doline

sto je muka moja
zrno od problema
sto mi srce stoji
stoji kad te nema   

* Pjesma uglavnom isti ritam pici. 
* Nije nesto posebno ali moze se svirat.


***VERZIJA 2***
Transkripcija: Ivan Milic, ivanm_pg@yahoo.com


1) Uvodni dio (ukoliko ga svirate na elek. gitari, chorus je obavezan):
------------------------------------------------------------------------------
------------------------------------------------------------------------------
---------------------------4-----4-----2-----2--------------------------------
---4-----4-----5-----5---4---4-4-----2---2-2----------------------------------
-5---5-5---5-5---5-5---5----------0-----------0-------------------------------
------------------------------------------------------------------------------
svirajte 2x, a zatim nastavite sa tekstom ("Ja sam morski pesak...")


2) Glavni akordi u cijeloj pjesmi:
  D     G     D     A     D     G     D     A
--2-----3-----0-----5-----2-----3-----0-----5--
--3-----3-----3-----2-----3-----3-----3-----2--
--2-----0-----2-----2-----2-----0-----2-----2--
--0-----0-----0-----2-----0-----0-----0-----2--
--------2-----------0-----------2-----------0--
--------3-----------------------3--------------


3) Transkripcija dijela u kom se cuje truba:
-----5-------------5b7---5------------5--------------------------------|------
---------8-7-5-------------8-7-5--7-8---5--h7p5--------5---------------|------
--7------------7--------------------------------7--6-7-----------------|------
----------------------------------------------------------9--h11p9--7--|------
-----------------------------------------------------------------------|------
-----------------------------------------------------------------------|------

------------------------------------------------------------------------------
------------------10b12---10-----------10-------------------------------------
-------9-11--9-7-------------12---9b11-----11v---9v---------------------------
-----7-7---------------------------------------------12v-11-------------------
---9--------------------------------------------------------------------------
------------------------------------------------------------------------------

4) bridge prije refrena i prije druge strofe
---------------------0-------------|------------------------------------------
-------3----------3---3--------3---|------------------------------------------
-----0----------0------0-----0-----|------------------------------------------
---4----------4------------4-------|------------------------------------------
-------------------------5---------|------------------------------------------
-3----------3----------------------|------------------------------------------

5) Akordi za refren, drugi put:
-0------3------5------5---------
-3------3------5------2---------
-2------0------7------2---------
-0------0------7------2---------
--------2------5------0---------
--------3-----------------------

-5------3------5------5---------
-3------3------5------2---------
-2------0------7------2---------
-0------0------7------2---------
--------2------5------0---------
--------3-----------------------


6) Ostali prelazi (cucete ih u pjesmi:-)
----------------------------------|----14--15--14-15---14v--15v--14v---|------
----------------------------------|------------------------------------|------
--11--12--11-12---11v--12v--------|------------------------------------|------
----------------------------------|------------------------------------|------
----------------------------------|------------------------------------|------
----------------------------------|------------------------------------|------

--------------------------------------------------------------------|---------
--------------------------------------------------------------------|---------
--------------------------------------------------------------------|---------
---7-x-x-7-x-x-7-x--------------------------------------------------|---------
---5-x-x-5-x-x-5-x-5-x-x-5-x-x-5-x-9-x-x-9-x-x-9-x-7-x-x-7-x-x-7-x--|---------
-------------------3-x-x-3-x-x-3-x-7-x-x-7-x-x-7-x-5-x-x-5-x-x-5-x--|---------

----------------------------------0-------------------------------------------
--------3------3-------3------------------------------------------------------
------2------2-------2----------2---------------------------------------------
----0-------------------------2-----------------------------------------------
-------------------2--------0-------------------------------------------------
-----------3------------------------------------------------------------------

7) solo na akusticnoj:
------------------------------------------------------------------------------
---------------7-8--10-10-10-10--10-8-7----8-8-8-8--8-7------------7----------
-7-7-7-7---7-9--------------------------9---------------9-7--7-7-9----9-9-----
--------------------------------------------------------------------------7---
------------------------------------------------------------------------------
------------------------------------------------------------------------------

---|--------------------------------------------------------------------------
---|--------9*-11*-12*-9*-10*-------------------------------------------------
---|--------------------------------------------------------------------------
-7-|--------------------------------------------------------------------------
---|--------------------------------------------------------------------------
---|--------------------------------------------------------------------------

* Eto! Posto je ovo prva tablatura koju sam napravio za gitaru i posao je na net,
* nadam se da ce biti od neke koristi onima koji vole Bajagu i ovu pjesmu!
* Veliki pozdravi iz Podgorice!