Bajaga - Moji Drugovi

Transkripcija: ????
Poslao       : Vlado (vlado.t@hotmail.com)
Home         : http://galeb.etf.bg.ac.yu/~drs/muzika/



Am                      E
Moji su drugovi biseri rasuti
         Am      Am E Am
Po celom svetu

         C              G
I ja sam selica pa ih ponekad
          C      C G C
Sretnem u letu
           F                 C
Dal' je to sudbina il ko zna sta li je
           F                C
Kad god se sretnemo uvek se zalije
        E7                          Am
Uvek se zavrsi s nekom od nasih pesama

Ref:
         G                        C
  Da smo zivi i zdravi jos godina sto
        G                          C
  Da je pesme i vina i da nas cuva bog
        G                        C
  Da su najbolje zene uvek pored nas
           E7                           Am
  Jer ovaj zivot je kratak i prozuji za cas

       G                   C    C      E7               Am
e-|-------3-----3--3-1-0---0-|--3--1-0--------------------
B-|----3-----3-----------3---|---------3-1-0-1-3-0---0-1--
G-|--------------------------|---------------------2-----2
D-|--------------------------|----------------------------
A-|--------------------------|----------------------------
E-|--------------------------|----------------------------
   X3
        
***VERZIJA 2***
Transkripcija: Bojan Basic (bbasic@ptt.yu)

Intro:
E-0-5-4-5-7-4-5-3-1-0---3-1-0---0-3---0-1---0-1-1-5-3-1-0---0-1-5-3-1-0---0-
H---------------------3-------3-----3-----3---------------3-------------3---
G---------------------------------------------------------------------------
D---------------------------------------------------------------------------
A---------------------------------------------------------------------------
E---------------------------------------------------------------------------

E-3-1-0-----------------------------
H-------3-1-0-1-3-1-0-1-3-0---0-1---
G---------------------------2-----2-
D-----------------------------------
A-----------------------------------
E-----------------------------------

Solo:
E---3---3-3-1-0---0---3---3-3-1-0---0---3---3-3-1-0---0-
H-3---3---------3---3---3---------3---3---3---------3---
G-------------------------------------------------------
D-------------------------------------------------------
A-------------------------------------------------------
E-------------------------------------------------------

E-3-1-0-----------------------------
H-------3-1-0-1-3-1-0-1-3-0---0-1---
G---------------------------2-----2-
D-----------------------------------
A-----------------------------------
E-----------------------------------

Sa ovim tonalitetom pesma pocinje iz a-mola.