Bajaga - Samo Nam Je Ljubav Potrebna

Transkripcija: ????
Poslao       : Vlado (vlado.t@hotmail.com)
Home         : http://galeb.etf.bg.ac.yu/~drs/muzika/


(B=H)

Intro:

     E
e-|-----------------------------------------------------
B-|-----------------------------------------------------
G-|-----------------------------------------------------
D-|-------------6-7---6-----6---------------6-7--6------
A-|-7---7---7-9----------9------7---7---7-9---------9--7
E-|-----------------------------------------------------

     A                          E
e-|-----------------------------------------------------
B-|-----------------------------------------------------
G-|---------------6-7---6-----6-------------------------
D-|---7---7---7-9----------7----9---9^7--6---6/4/2------
A-|-----------------------------------------------------
E-|-----------------------------------------------------

     B        A           E
e-|-----------------------------------------------------
B-|-----------------------------------------------------
G-|-----------------------------------------------------
D-|---9--7--6--7--6-------------------------------------
A-|------------------7--9--7----------------------------
E-|-----------------------------------------------------

E
Noc pocinje da se skida
E
Jutro rumeno od stida
A                     E
Plava kugla sporo rotira
B           A        E
Tu se covek lose kotira

Kad bih barem bio ptica
Koja leti let sloboda
Svi bi bili avijacija
Jer je takva situacija

Ref:
	    A
        Dok postoji druga strana
        Ljudi kazu tamna strana
        Tamna strana sile
             E
        Svemira

        Dok postoji druga strana
        Ona grozna tamna strana
        Kao i u vreme
             E
        Frikova
        B           A           E
        Samo nam je ljubav potrebna

Koja sila vlada svetom
Hipici u pedesetoj
Svoju decu plase bombama
Bombama u katakombama

Izgubljeno poverenje
Poverenje i postenje
Vojne sile demonstracija
Protiv volje svetskih nacija

G       Am7     D7
All you need is love
G       Am7     D7
All you need is love
G       B7      Em          G C
All you need is love, love
Love is all you need