Bajaga - Tisina

Transkripcija: Babic Stojan


Kroz celu pesmu se ovo ponavlja:
   Am                C                 G                 G
E||-----------------|-----------------|-----------------|------------------|
B||-------1---------|-------1---------|-------3---------|-------3----------|
G||-----2-----2-----|-----0-----0-----|-----------0-----|-----------0------|
D||---2---------2---|---2---------2---|-----0-------0---|-----0-------0----|
A||-0-------------0-|-3-------------0-|---2-----------0-|---2-----------0--|
E||-----------------|-----------------|-3---------------|-3----------------|

Mrak se skupio u kap
Rano jutro kao slap
Ulazi u sobu

Dal' si ikad pitala
Tamne senke zidova
Ujutro gdje odu

Oci su ti sklopljene
Usne su ti umorne
Ne ljubi me njima

Nisu cvorci pjevali
Dok' je iznad krovova
Svirala tisina

Hajde Boze budi drug
Pa okreni jedan krug
Unazad planetu

Noc je kratko trajala
A nama je trebala
Najduza na svijetu

U mom oku samo hlad
U mom srcu samo stud
Inje i prasina

Nisu cvorci pevali
Dok je iznad krovova
Svirala tisina

Solo:

Prvi i drugi solo su isti:
|--------------------------------|--------------------------------------------|
|--------------------------------|------------------------8/10-8-10-8-10-10\--|
|-----4-5--4-5--7/9--7~----------|-----4-5--4-5--7/9--7~----------------------|
|-5-7--------------------9-7-5~--|-5-7----------------------------------------|
|--------------------------------|--------------------------------------------|
|--------------------------------|--------------------------------------------|

|--------------------------------|--------------------------------------------|
|--------------------------------|-8/10--8------8-----------------------------|
|-----4-5--4-5--7/9--7~----------|----------7/9---9\7--5-4--------------------|
|-5-7--------------------9-7-5~--|-------------------------7-5~---5-7~~~~-----|
|--------------------------------|--------------------------------------------|
|--------------------------------|--------------------------------------------|

Slusaj, gore pisti voz
Njime odlazim u Oz
Necu da se vratim

Sto god tebi napisem
Pocepam i obrisem
Al' ti moras znati

Nisi se probudela
Zato nisi videla
Igrale su sene

Nek' te dobri drugovi
i kraljevski orlovi
cuvaju od mene.

Treci solo:
|----------------------------------------8-7----8-7----8-7----------
|-8/10--8------8----------------8/10--8------8------8------8-8-8/10-
|----------7/9---9\7--5-4-------------------------------------------
|-------------------------7-5~--------------------------------------
|-------------------------------------------------------------------
|-------------------------------------------------------------------...ponavlja se