Bajaga - Verujem, Ne Verujem

Transkripcija: Kristian Vlasic
Home         : http://yurope.com/people/sen/The.Book.Of.Home/akordi


Riff:
e -----------------------------------------
H -----------------------------------------
G --------------------0-2------------------
D ----2---2-------2-3-----3-2-0------------
A --0---3-----2-3---------------3-2--------
E ----------3------------------------------  do iznemoglosti...


Gluvo je doba, svi su zaspali
Osecam strasan nedostatak buke
Hocu da vristim, al' ne mogu sam
Ljudi su danas osetljivi na zvuke

Jer je noc, noc, noc, noc
Totalni je mrak
Nista se vise ne vidi u tami
Ovo svetlo je usamljeni zrak
Osecam ipak k'o da nismo sami
Ti i ja

Verujem
Ne verujem

Ustani, nije vreme spavanja
Dodji da cujes pobednicke trube
Napi se vodom sa ovog izvora
Napolju ljudi pevaju kroz zube

Jer je noc, noc....



Am C Am  (VERSE)
F  C G

Am G Am  (BRIDGE-CHORUS)
F  C G


***VERZIJA 2***
Riff:
e -------------------------------------------
H -------------------------------------------
G ----------------------0-2------------------
D ----2---2-------0-2-3-----3-2-0------------
A --0---3-----2-3-----------------3-2--------
E ----------3--------------------------------do iznemoglosti...



Am       C     G           C
Gluvo je doba, svi su zaspali
F              F          G
Osecam strasan nedostatak buke
Am      C        G         C
Hocu da vristim, a ne mogu sam
F              C            G
Ljudi su danas osetljivi na zvuke

       Am
Jer je noc, noc, noc, noc
G          C
Totalni je mrak
F             C
Nista se vise ne vidi u tami
      Am        G         C
I ovo svetlo je usamljeni zrak
F             C
Osecam ipak k'o da nismo sami
     Am
Ti i ja

Verujem
Ne verujem

Ustani, nije vreme spavanja
Dodji da cujes pobednicke trube
Umij se vodom sa ovog izvora
Napolju ljudi pevaju kroz zube

Jer je noc, noc...

Am  GC  FC      G    Am
    Verujem - Ne verujem

Cekamo jutro da se razdani,
Da neko dodje i donese svecu
U ovom mraku covek ne vidi
A ja da cekam ne mogu i necu


***VERZIJA 3***
Transkripcija: Ivan Vasic (ivasic@cent.co.yu)
Home         : http://www.tablature.co.yu


Am       C    G   C
Gluvo je doba svi zaspali
F              C          G
osecam strasan nedostatak buke
Am      C       G         C
hocu da vristim a ne mogu sam
F              C            G
ljudi su danas osetljivi na zvuke
       Am
jer je noc, noc, noc, noc
G          C
totalni je mrak
F             C         G
nista se vise ne vidi u tami
     Am       G         C
ovo svetlo je usamljeni zrak
F            C           G
osecam ipak k'o da nismo sami
     Am
ti i ja


***VERZIJA 4***
Transkripcija: ParadoX

UVOD:
  Am          C        G        C        Fmaj7
-------------------------------------------------------
-------------------------------------------1--1---1----
----2---2-------0---0--------0----0---0-----0---2----0-
------2-----------2------0----------2----3----------3--
--0-----------3------------2----3----------------------
-----------------------3-------------------------------

-------------------------------------------------------
-------------------------------------------------------
-----0---0---------------------------------------------
---2---0------0---0------------------------------------
------------3---2--------------------------------------
-------------------------------------------------------


***VERZIJA 5***
Transkripcija: Johnny - karabananakara@yahoo.ca


  Cista svirka...
 E|-------------------------------------------------------------------|
 B|---1---1---1---1---1---1---1---1---1---1---1---1---1---1---1---1---|
 G|-------------------------------------0---2-------------------------|
 D|-----2-------2---------------2---3-----------3---2---0-------------|
 A|-0-------3-----------2---3-------------------------------3---2-----|
 E|-----------------3-------------------------------------------------|

 E|-------------------------------------------------------------------|
 B|---1---1---1---1---0---0----1---1---1---1---1---1---1---1---1---1--|
 G|--------------------------------------0---2------------------------|
 D|-----2-------2----------------2---3-----------3---2---0------------|
 A|-0-------3-----------2----3-------------------------------3---2----|
 E|-----------------3-------------------------------------------------|


 ***VERZIJA 6***
Transkripcija: blagoye


        2  1  2  3     1        2     1     2     1       ---- prstored lijeve ruke
E||--------------------------|--------------------------|
B||--------------------------|--------------------------|
G||-----2-----2-----0-----0--|-----0-----0-----0-----0--|
D||--------2-----------2-----|--------------------2-----| ---- naglasiti E na D zici
A||--0-----------3-----------|--------2-----3-----------|
E||--------------------------|--3-----------------------|

  3  1    1   2  1  3  1     2  1     1  3  1  2  1       ---- prstored lijeve ruke
--------------------------|---------------------------||
-----1-----1-----1-----1--|-----1-----1-----1-----1---||
--------0-----2-----------|--------------------------*||
--3-----------------3-----|--2-----0-----------------*||
--------------------------|--------------3-----2------||
--------------------------|---------------------------||


...narafski ovo gore se vrti kroz cijelu pjesmu!

Hint: Svirati palcem i kaziprstom desne ruke ili trzalicom.