Balasevic Djordje - Ankica

Transkripcija: pipss@mail.ru
Album        : Dnevnik starog momka
Home         : http://2akordi.net


     C                 Em               Am             Em
Kroz tanusnu maglu kao zejtin po staklu dan se razliva tih,
F              G                         C
mislim sreda - cetvrtak? Il' vec neki od njih.

Najtise sto moze, k'o sa predstave lose, iskradam se iz sna,
Iz ogledala viri jedan stariji ja.

Dm          G           C         Am
A nad Novim Sadom vetar kinji oblake,
F           G             C
Pocinje jos jedan dan bez nje.

Drugari u frci, svi su duzni k'o Grci, Krupnih predloga par.
Kad' ono? Sto "marona" do prvog' im zavrsava stvar.

Na starom Trgu Slobode vecna revija mode, I srce trucka na tren.
Neki plesuci mantil? Ne... Nije njen.

A nad Novim Sadom vetar konje propinje,
Prolazi jos jedan dan bez Nje.

SOLO GITARA:
|E  E7  |F  Fm  |C     |G    F|
|E  E7  |F  Fm  |C     |G     |

Kod Lazice Puze je podnosljive guzve, Katkad poduprem sank.
I tako... Stara garda iz kvarta jos se lozi na fank.

I proturaju price da sve curice lice kad' je casa pri dnu!?
Pa dobro... mozda jedna na drugu, ali nikad' na nju.

A nad Novim Sadom vetar kaci ordenje,
Prolazi jos jedan dan bez Nje.

SOLO SAX:
|E  E7  |F  Fm  |C     |G    F|
|E  E7  |F  Fm  |C     |G     |

I lelujam u centru kao fenjer na vetru, Jesen protresa skut.
Ne vredi... Potrebno je bar dvoje da se ukrsti put.

Zamrzavam sliku na poznatom liku, dok se sunjam u san...
Da ne primete tamo da sam odsutan.

F           G           C
A nad Novim Sadom primirje...
F           G             C
Prolazi jos jedan dan bez Nje...

***VERZIJA 2***
Transkripcija: Miroslav Obradovic (micky@EUnet.yu)


NAPOMENA: Uz svaki akord, iza kose crte stoji ton koji se
svira u basu akorda (najnizi ton koji se svira). Ako nista
ne pise, onda se u basu svira osnovni ton akorda.


      C                 G/H             F/A             C/G
 Kroz tanusnu maglu kao zejtin po staklu dan se razliva tih,
F                  G                     C
 mislim, sreda, cetvrtak, il vec neki od njih.
    C                    G/H            F/A             C/G
 Najtise sto moze, ko sa predstave lose, iskradam se iz sna,
F            G                  C
 iz ogledala viri jedan stariji ja.

        Dm            G          C         F/A
         A nad Novim Sadom vetar kinji oblake,
        F            G             C
         pocinje jos jedan dan bez nje.

 Drugari u frci svi su duzni ko Grci, krupnih predloga par,
 kad ono, 100 marona do prvog im zavrsava stvar.
 Na starom trgu slobode vecna revija mode, i srce strucka na tren,
 neki plesuci mantil, umm ne, nije njen.

         A nad Novim Sadom vetar konje propinje,
         prolazi jos jedan dan bez nje.

(solo)

 Kod Lazice Puza je podnosljiva guzva, katkad poduprem sank,
 i tako, a stara garda iz kvarta jos se lozi na fank.
 I proturaju price da sve curice lice kad je casa pri dnu,
 pa dobro, mozda jedna na drugu, ali nikad na nju.

         A nad Novim Sadom vetar kaci ordenje,
         prolazi jos jedan dan bez nje.

(solo)

 I lelujam u centru kao fenjer na vetru, jesen protresa skut,
 ne vredi, potrebno je bar dvoje da se ukrsti put.
 Zamrzavam sliku na poznatom liku, dok se sunjam u san,
 da ne primete tamo da sam odsutan.

         A nad Novim Sadom primirje,
         prolazi jos jedan dan bez nje.


***VERZIJA 2***
Transkripcija: Sven Sipos


Solo gitara:
E ------------------------------------------------------
B ------------------------------------------------------
G ------------------------------------------------------
D -2-1-2-2/14-12-10-9-12-10-9h10p9----10-12-10-10/14\10-
A ---------------------------------11-------------------
e ------------------------------------------------------

-------------------------------------------------
-------------------------------------------------
-------------------------------------------------
-------------------------------------------------
10--10-10-12-10----10--12-10-12-10-12-10h12p10---
----------------12-------------------------------


E ---------------------------------------------------------
B ---------------------------------------------------------
G -----------------------------------10--10-10-10-10-9-----
D ------------/14-12-10-9-12-10-9-10-------------------10--
A -8-7-7-6-7-----------------------------------------------
e ---------------------------------------------------------

----------------------------------------------
----------------------------------------------
9-9-10-9--------------------------------------
---------12-10-12/14-12-12h14p12-11-12--------
----------------------------------------------
----------------------------------------------