Balasevic Djordje - Ja Luzer

Transkripcija: Boris Gaspic
Home         : http://yurope.com/people/sen/The.Book.Of.Home/akordi


  D                F#7              F#7              Hm
e|2-0-------------|------0---------|------2---0-----|----------------
H|----3-----------|----2-----------|2-1-2-----------|0---0-3---------
G|------2---------|--3-------------|--------------3-|--3-------------
D|----------------|s4--------------|----------------|----------------
A|----------------|----------------|----------------|----------------
E|----------------|----------------|----------------|----------------
 
  D                F#7              F#7              Hm
e|2-0-------------|------0---------|------2---0-----|----------------
H|----3-----------|----2-----------|2-1-2-------2-3-|0---------------
G|------2---------|--3-------------|----------------|----------------
D|----------------|s4--------------|----------------|----------------
A|----------------|----------------|----------------|----------------
E|----------------|----------------|----------------|----------------
 
 
          F# C#          F#7
Rodjen pod sedmom zvezdom magicnom
        Hm                     G
Ali nad ovom zemljom generalno tragicnom
D               F#7        Hm
Cemu sam blizi? Triput pogadjaj.
 
   Netko nad nama vrsi oglede
   Ajde utuvi se pa pogledaj u poglede
   Ovde je osmeh dogadjaj
 
   U supak kosmosa smo upali
   Mnogi su dobrani zauvek prolupali
   Caruje virus apatije
 
   Al ti na mene stavi upitnik
   Pa reci dal ti bato deluje ko gubitnik
   Ma nema sanse, sta ti je
 
    C#   D        A
Ja nisam luzer, o naprotiv
   G    F#7   Hm
Meni je osmeh lajtmotiv
    C#   D         A         G
Ja nisam luzer, ja imam nas
F#7              Hm
A za svet k'o te pita
    C#   D    A
Ja nisam cedo proseka
 G      F#7     Hm
Mene ne vuce oseka
   C#      D       A        G
S tobom je tretman poseban
F#             G
svaki je dan dolcevita
F#7           Hm
i svud je Holivud
 
   Namlatim mesecno sest maraka
   Bude za cipovku i frtalj kile cvaraka
   Olos mi veze ometa
 
   Ali kad dodem kuci tu si ti
   E, tu ce tvrdjavicu malo teze srusiti
   To im je izvan dometa
 
   Ja nisam luzer...

***VERZIJA 2***
Transkripcija: ???


Hm         A                 Fis 
Rodjen pod srecnom zvezdom magicnom
        Hm
ali nad ovom zemljom    
           G
generalno tragicnom
           D  Fis           Hm
cemu sam blizi triput pogadjaj

Neko nad nama vrsi oglede ...

          D       A
Ja nisam luzer,o,naprotiv    
         Fis    Hm
meni je osmeh lajtmotiv  

Ja nisam luzer,ja imam nas ...

Fis                 G
Svaki je dan dolce vita
           Fis  Hm
I svud je Holivud

Namlatim mesecno sest maraka ...

***VERZIJA 3***
Transkripcija: sasayu1983 (sasayu1983@yahoo.com)

Tonalitet : Hm

uvodni solo:					
  Hm
e|--2--------------------------2----------------|--2-----------------------2---------|
h|----5-3---------2-5----2-1-2---5-2-3-------3--|----5-3--------2-5--2-1-2---5--2-3--|
g|--------2-----3----------------------4-3-4----|--------2----3---------------------4|
d|-----------/4---------------------------------|----------/4------------------------|
a|----------------------------------------------|------------------------------------|
E|----------------------------------------------|------------------------------------|

Sto se tice akorada evo skracene verzije bez teksta:
strofa: (Hm)-krajc F# Hm G D F# Hm
refren: D A F# Hm
u stuhu sa DolceVita je malo drugacije D A F# G onda okini dvaput F# Hm 
(kod hollywood) Ako vam nije jasno pisite!Srecno!