Balasevic Djordje - Lepa Protina Kci

Transkripcija:Boris Gaspic
Home         :http://yurope.com/people/sen/The.Book.Of.Home/akordi

 
 
  Am                                Am               Em
 
e|----------------|----------------|----------------|0-----0-----0---
H|1-----1-----1---|1-----1-----1---|1-----1-----1---|0---0-----0-----
G|----2-----2-----|----2-----2-----|----2-----2-----|0-0-----0-----0-
D|--2-----2-----2-|--2-----2-----2-|--2-----2-----2-|----------------
A|0---------------|0---------------|0---------------|----------------
E|----------------|----------------|----------------|0---------------
 
                            Jos sam bio       sasvim mlad         neke
 
  C                G                Dm/A             Am    E
 
e|0-----0-----0---|----------------|1-----1-----1---|----------------
H|----1-----1-----|3-----3-----3---|----3-----3-----|1-----0-------0-
G|--0-----0-----0-|----0-----0-----|--2-----2-----2-|----2-1-----2---
D|2---------------|--0-----0-----0-|----------------|--2-------------
A|3---------------|----------------|0---------------|0---------------
E|----------------|3---------------|----------------|------0---------
 
  barske ptice sam lovio tad kad je dosla      da se ku____pa    lepa
 
  Am                                                 Em
 
e|----------------|--0---0---0---0-|----------------|0-----0-----0---
H|3-1-0-1-------0-|1---3---1---0---|1---------1-----|----0-----0-----
G|------------2---|----4---2---1---|2---2---2-----2-|--0-----0-----0-
D|----------2-----|----------------|--2---------2---|----------------
A|0---------------|----------------|0---------------|----------------
E|----------------|----------------|----------------|0---------------
 
  Protina kci                  Nije znala   gde sam ja         da je
 
  C                G                Dm/A             Am    E
 
e|0-----0-----0---|----------------|1-----1-----1---|----------------
H|----1-----1-----|3-----3-----3---|----3-----3-----|1-----0-------0-
G|--0-----0-----0-|----0-----0-----|--2-----2-----2-|----2-1-----1---
D|----------------|--0-----0-----0-|----------------|--2-------2-----
A|3---------------|----------------|0---------------|0---------------
E|----------------|3---------------|----------------|------0---------
 
  gledam krisom    trsku i sas, a   reke      noc je pa____la     kao
           |->kroz         |->preko
 
  Am                                Dm6/H            E7
 
e|----------------|----------------|----------------|----------0-----
H|1-----1-----1---|1-----1-----1---|------3-----3---|--------0-----0-
G|----2-----2-----|----2-----2-----|----2-----2-----|------1-----1---
D|--2-----2-----2-|--2-----2-----2-|--3-----3-----3-|----0-----------
A|0---------------|0---------------|2---------------|--2-------------
E|----------------|----------------|----------------|0---------------
 
  plast...                                     Mesec tinja     nad vr-
 
  Am                                Dm6/H            E7
 
e|1---0-----0-----|----------------|----------------|----------0-----
H|--------1-----1-|------1-----1---|------3-----3---|--------0-----0-
G|--2---2-----2---|----2-----2-----|----2-----2-----|------1-----1---
D|----------------|--2-----2-----2-|--3-----3-----3-|----0-----------
A|0---------------|0---------------|2---------------|--2-------------
E|----------------|----------------|----------------|0---------------
 
  bakom                                       Srebri nebom    zvjezda
 
  Am                                C                G
 
e|----------------|----------------|0-----0-----0---|----------------
H|1-----1-----1---|1-----1-----1-3-|----1-----1-----|--------3-----3-
G|----2-----2-----|----2-----2-----|--0-----0-----0-|------0-----0---
D|--2-----2-----2-|--2-----2-------|----------------|----0-----0-----
A|0---------------|0-------------2-|3---------------|--2-------------
E|----------------|----------------|----------------|3---------------
 
  roj                                         I kapi vode         kao
 
  Am      G        F                C
 
e|----------------|----------------|----------------|----------------
H|------1-------0-|----------------|1-----1-----1---|1-----1-----1---
G|----2-------0---|------2-----2---|----0-----0-----|----0-----0-----
D|--2-------0-----|----3-----3-----|--2-----2-----2-|--2-----2-----2-
A|0---------------|--3-----3-----3-|3---------------|3---------------
E|--------3-------|1---------------|----------------|----------------
 
  bi______se_______ri          koji blistaju                  svud po
 
  Esus4            E
 
e|0-------------0-|0v------------------
H|0-----0-----0---|0v------------------
G|2---2-----2-----|1v------------------
D|2-2-----2-------|--------------------
A|2---------------|--------------------
E|0---------------|0C------------------
 
  njoj...          
 
   O, srce ludo, ludi sni
   Vec se moji drugovi momcili svi
   A ja sam hteo samo jednu -
   Lepu protinu kci
 
   Cudnom pesmom zvoni drum
   Te su zime svatovi dosli po nju
   Iz daleka
   Neki svet za mene tudj
  
   Bas sam prosao sokakom
   Padao je prvi sneg
   I jos ponekad zazvone praporci
   sto je odnose
   Ko zna gde...
 
   Da se zenim... imam kad
   Ja sam, eto, ostao momak do sad
   Nikad vise nisam sreo
   Lepu Protinu kci
  
   Jedan zivot miran, tih
   Nekad bacim kartu il napisem stih
   Stvari teku, ja se drzim
   Izvan njih
 
   I ljubim dobre, ljubim lake
   Neke prave, a neke ne
   I sve su vile, sve su kraljice
   I sve su nevazne
   Naspram nje...

   
***VERZIJA 2***
[Am]Jos sam bio sasvim [Em]mlad, 
neke [C]barske ptice sam [G]lovio tad, 
kad je [Dm]dosla da se [Esus4]ku[E]pa 
lepa [Am]protina kci. 

Nije znala gde sam ja, 
da je gledam, krisom, kroz trsku i sas, 
a preko reke noc je pala kao plast. 

Me[Dm6]sec [E]tinja nad [Am]vrbakom, 
sre[Dm6]bri [E]nebo, zveda [Am]roj, 
[C]i kapi [G]vode kao [Am]bi[G]se[F]ri 
koji [C]blistaju svud po [Esus4][E]njoj... 

***VERZIJA 3***
Transkripcija: ???
Poslao: lector_79@email.co.yu


Am                         Em
Jos sam bio sasvim mlad,
        C                        G
neke barske ptice sam lovio tad,
            Dm           Am-E7
Kad je dosla da se ku-pa
       Am
lepa protina kci.

Bm7-5  E7            Am
Mesec tinja nad vrbakom
Bm7-5   E7           Am
srebri nebom zvezda roj
C       G            Am-G-F
a kapi vode kao bi-se-ri
       C                 Esus4  E
koji blistaju svud po njoj...

      Esus4                        Bm7-5
e------------0             -----------x
a------------2             -----------2
d------------2             -----------3
g------------2             -----------2
h------------0             ---------- 3
e------------0             -----------x

***VERZIJA 4***
Transkripcija: ???
Home         : http://galeb.etf.bg.ac.yu/~drs/muzika/


  Am                                Am               Em
e|----------------|----------------|----------------|0-----0-----0---
H|1-----1-----1---|1-----1-----1---|1-----1-----1---|0---0-----0-----
G|----2-----2-----|----2-----2-----|----2-----2-----|0-0-----0-----0-
D|--2-----2-----2-|--2-----2-----2-|--2-----2-----2-|----------------
A|0---------------|0---------------|0---------------|----------------
E|----------------|----------------|----------------|0---------------
                            Jos sam bio       sasvim mlad        neke
 
  C                G                Dm/A             Am    E
e|0-----0-----0---|----------------|1-----1-----1---|----------------
H|----1-----1-----|3-----3-----3---|----3-----3-----|1-----0-------0-
G|--0-----0-----0-|----0-----0-----|--2-----2-----2-|----2-1-----2---
D|2---------------|--0-----0-----0-|----------------|--2-------------
A|3---------------|----------------|0---------------|0---------------
E|----------------|3---------------|----------------|------0---------
  barske	   lovio	    dosla            ku----pa    lepa
 
  Am                                                 Em
e|----------------|--0---0---0---0-|----------------|0-----0-----0---
H|3-1-0-1-------0-|1---3---1---0---|1---------1-----|----0-----0-----
G|------------2---|----4---2---1---|2---2---2-----2-|--0-----0-----0-
D|----------2-----|----------------|--2---------2---|----------------
A|0---------------|----------------|0---------------|----------------
E|----------------|----------------|----------------|0---------------
  Protina kci                  Nije znala	     ja
 
  C                G                Dm/A             Am    E
e|0-----0-----0---|----------------|1-----1-----1---|----------------
H|----1-----1-----|3-----3-----3---|----3-----3-----|1-----0-------0-
G|--0-----0-----0-|----0-----0-----|--2-----2-----2-|----2-1-----1---
D|----------------|--0-----0-----0-|----------------|--2-------2-----
A|3---------------|----------------|0---------------|0---------------
E|----------------|3---------------|----------------|------0---------
  gledam	   trsku		reke	     pa----la

  Am                                Dm/H             E7
e|----------------|----------------|----------------|----------0-----
H|1-----1-----1---|1-----1-----1---|------3-----3---|--------0-----0-
G|----2-----2-----|----2-----2-----|----2-----2-----|------1-----1---
D|--2-----2-----2-|--2-----2-----2-|--3-----3-----3-|----0-----------
A|0---------------|0---------------|2---------------|--2-------------
E|----------------|----------------|----------------|0---------------
  plast                                        Mesec tinja     nad vr-
 
  Am                                Dm/H             E7
e|1---0-----0-----|----------------|----------------|----------0-----
H|--------1-----1-|------1-----1---|------3-----3---|--------0-----0-
G|--2---2-----2---|----2-----2-----|----2-----2-----|------1-----1---
D|----------------|--2-----2-----2-|--3-----3-----3-|----0-----------
A|0---------------|0---------------|2---------------|--2-------------
E|----------------|----------------|----------------|0---------------
  bakom                                       Srebri nebom    zvezda
 
  Am                                C                G
e|----------------|----------------|0-----0-----0---|----------------
H|1-----1-----1---|1-----1---------|----1-----1-----|--------3-----3-
G|----2-----2-----|----2-----------|--0-----0-----0-|------0-----0---
D|--2-----2-----2-|--2-------------|----------------|----0-----0-----
A|0---------------|0-------2-0---2-|3---------------|--2-------------
E|----------------|------------3---|----------------|3---------------
  roj                                         I kapi vode         kao
 
  Am      G        F                C
e|----------------|----------------|----------------|----------------
H|------1-------0-|----------------|1-----1-----1---|1-----1-----1---
G|----2-------0---|------2-----2---|----0-----0-----|----0-----0-----
D|--2-------0-----|----3-----3-----|--2-----2-----2-|--2-----2-----2-
A|0---------------|--3-----3-----3-|3---------------|3---------------
E|--------3-------|1---------------|----------------|----------------
  bi------se-------ri          koji blistaju                  svud po
 
  Esus4            E
e|0-------------0-|0v------------------
H|0-----0-----0---|0v------------------
G|2---2-----2-----|1v------------------
D|2-2-----2-------|--------------------
A|2---------------|--------------------
E|0---------------|0^------------------
  njoj