Bare Goran - Baretov Blues

Transkripcija: Marko Polo (GuitarOne16@aol.com)
Album        : Vrijeme je da se krene


Super super pisma od  majki!!!!.

Intro:vise udaraj deblje zice
e-5-5-4-4-3-3-2-2-1=-1---------------------------------------]
B-5-5-4-4-3-3-2-2-1=-1---------------------------------------]
G-6-6-5-5-4-4-3-3-2=-20-1=--1-------------------22b44-22-444-]
D-7-7-6-6-5-5-4-4-3=-30-2=--2-0---22b44-22-444--00-00-00-000-]
A-7-7-6-6-5-5-4-4-3=-30-2=--2-0---00-00-00-000---------------]
E-5-5-4-4-3-3-2-2-1=-10-0=----0------------------------------]

e--------------1------------------------------------------]
B--------------v------------------------------------------]
G----------------22b44-22-444----------------22b44-22-444-]
D-22b44-22-444---00-00-00-000--22b44-22-444--00-00-00-000-]
A-00-00-00-000-----------------00-00-00-000---------------]
E---------------------------------------------------------]

e--------------1---------------------------------------------------]
B--------------v---------------------------------------------------]

G---------------22b44-22-444---------------------------------------]
D-22b44-22-444--00-00-00-000--222222222222222222/44444444444444444-]
A-00-00-00-000----------------222222222222222222/44444444444444444-]
E------------------------------------------------------------------]
                                                ^
e-5-5-4-4-3-3-2-2-1=-1-----------]-kraj uvoda. Ovo slusaj pismu kad
B-5-5-4-4-3-3-2-2-1=-1-----------] tribas da slide
G-6-6-5-5-4-4-3-3-2=-20-1=--1----]
D-7-7-6-6-5-5-4-4-3=-30-2=--2-0--]
A-7-7-6-6-5-5-4-4-3=-30-2=--2-0--]
E-5-5-4-4-3-3-2-2-1=-10-0=----0--]

Verse:
e-------------------------------------------------]
B-------------------------------------------------]
G---------------22b44-22-444----------------------]
D-22b44-22-444--00-00-00-000--22b44-22-444--------]
A-00-00-00-000----------------00-00-00-000-itd..--]
E-------------------------------------------------]
      Puno pijem dok lezim u sobi sam
      Puno pijem dok lezim u sobi sam
      RIFF
      Ne zelim sunce nek traje ovaj mrak
      Ne zelim sunce nek traje ovaj mrak
	  
Riff:
e-----------------------------------------5-5-4-4-3-3-2-2-1=-1---------]
B-----------------------------------------5-5-4-4-3-3-2-2-1=-1---------]
G-----------------------------------------6-6-5-5-4-4-3-3-2=-20-1=-1---]
D-22222222222222222/444444444444444444444-7-7-6-6-5-5-4-4-3=-30-2=-2-0-]
A-22222222222222222/444444444444444444444-7-7-6-6-5-5-4-4-3=-30-2=-2-0-]
E-----------------------------------------5-5-4-4-4-4-2-2-1=-10-0=---0-]
  moje ljubavi vise nema i ne zelim da 
                                          svane dan
  Jer jedna zvjezda kao da pjeva to meni 
  moja draga             salje            znak
  aaaaaaaaa