Bare Goran - Fantasticna Vatra

Transkripcija: Frantic (bsredl@jagor.srce.hr)
Poslao       : Marko (lade@bendroz.ca)
Home         : ????



b = bend 
h = hammer 

                   
           E7#9

E----------------------------
H-----------8--8-8-----------
G-----------7--7-7----------- 
D-----------6--6-6-----------
A-----------7--7-7--------5b-
E----0--0-----------5--7-----

ok, ovo je bio glavni dio pjesme...promjene 
kroz pjesmu su minimalne, i lako ih je skinuti
                                         


Sve dok gori fantastichna vatra, ja sam slobodan.....


E------------------------------|2x|-------------------------
H---------8-8-8----------------|2x|-------------------------
G---------7-7-7----------------|2x|-------------------------
D---------6-6-6----------------|2x|------------------7-7-7-7
A---------7-7-7--5-h7--5----5--|2x|-9-9-9-9-9-9-9-9--5-5-5-5
E--0--0------------------7-----|2x|-7-7-7-7-7-7-7-7---------
                                jos     
                               jednom H                D
                                        outro


Ovo se sad ponavlja (rijeci znate jel tako), 
a drugi put nakon ovoga ide solo, koji 
je u E pentatonici...nije tezak, pa ga ne pisem...

nakon solaze ide sve ovo jos jednom, i to je sve.....