Bare Goran - Gresnik

Transkripcija: Fildzan


Gl. riff:
e--------------------------
h--------------------------
g--5--7-x-7-x-7--x-x-x-----
d--5--7-x-7-x-7--x-x-x-----
a--3--5-x-5-x-5--x-x-x-----
E--------------------------
ili
e--------------------------
h--------------------------
g--5--7-x-7-x-10-x-x-x-----
d--5--7-x-7-x-10-x-x-x-----
a--3--5-x-5-x-8--x-x-x-----
E--------------------------


Refren:
---------------------------
---------------------------
---------------------------
-5-3---3-5--5-5-5-5-5-5----
-----5------5-5-5-5-5-5----
------------3-3-3-3-3-3----

---------------------------
---------------------------
------------5-5-5-5-5-5----
-5-3---3-5--5-5-5-5-5-5----
-----5------3-3-3-3-3-3----
---------------------------

---------------------------
---------------------------
---------------------------
-5-3---3-5--5-5-5-5-5-5----
-----5------5-5-5-5-5-5----
------------3-3-3-3-3-3----


To bi otprilike bilo to...