Bare Goran - Krvarim Od Dosade

Transkripcija: Aarnaut@public.srce.hr
Poslao       : Mario (marioloncar@freemail.com)
Home         : http://fly.cc.fer.hr/~janje



    H riff:     D riff:
e|--2-222-2--|--2-33-2--|--
H|--4-555-4--|--3-33-3--|--
G|--4-444-4--|--2-22-2--|--
D|--4-444-4--|--0-00-0--|--
A|--2-222-2--|----------|--
E|-----------|----------|--

Uvod : [G]  [A]  [E]
Akordi : [A]  [H riff]  [C]  [D riff]

Ja sam momak iz proklete kuce
Lijen i nervozan, glup i otrovan
Ja sanjam i cekam svoje
Krvarim od dosade...

Solo : [E]  [G]  [A]  [C]

Ja sam momak iz proklete kuce
Hocu da ti slomim srce
Daj mi nocas malo nade
Krvarim od dosade...

Solo : [E]  [G]  [A]  [C]

Ja sam momak iz proklete kuce
Hocu da ti slomim srce
Daj mi nocas malo nade
Krvarim od dosade...


***VERZIJA 2***
Intro:

G dur, pa onda: 

e-----------------------------------------
h---3--5----------------------------------
g---------2--4-----4--2--0----------------
d-------------------------------0---2----0
a----------------------------------------0
e-----------------------------------------
 pa onda A dur, pa E (samo zadnje tri zice)
 i zatim

e------------------------------------------
h-------3----------------------------------
g--2--4------2--0--------------------------
d--------------------2---0-2-0-2-0-2-0-2---
a------------------------------------------
e------------------------------------------

to ide dva puta...ne znam da li je oba puta 
isto ali sigurno je slicno..i onda   

h-----2-----4--5--4-----5---7--8--7
g-----2-----4--4--4-----5---7--7--7  druga gitara
d-----2-----4--4--4-----5---7--7--7  hvatovi A, H, C, D
 
 ovo je
 uskladjeno             
                                            
h----------------=8-----8=0-   |----------=8--=10
g---------------=7----------   |---------=7----- 1.gitara

ugl. ide ovako, a jednom .......ovako

e sad, kroz pjesmu druga gitara svira ovo isto, a prva 
se ubacuje kod D,i to izgleda ovako nekako...

         ovo je ugl. hvat koji drzis, 
        /                              
       |      ovdje nategni cijeli hvat
       |    /
g--5---7---|-----5-------| -------7--|------5------|
d------7---|---------7---| -------7--|----------7--|


e to je sve bio uvod...dalje druga gitara svira ono isto
...samo imas bridge koji ide Fis, A, H, D......Za to 
vrijeme prva gitara solira u E pentatonici....

text:
 
 ja sam momak
 iz proklete kuce
 lijen i nervozan
 glup i otrovan
 ja sanjam
 i cekam sve
 krvarim od dosade
 ja sam momak
 iz proklete kuce
 hocu da ti
 slomim srce
 daj mi nocas
 malo nade
 krvarim od dosade