Bare Goran - Lutak Iskrivljenog Lica

Transkripcija: wah wah - jelenadj@teol.net


uvod:

riff 1 E|---------------------|
       H|---------------------|
       G|---------------------| X2
       D|-1---------1---------|
       A|---3-3-3-3---3-3-1-3-|
       E|---------------------|

riff 2 E|---------------------|
       H|---------------------|
       G|---------------------| X4
       D|-5---------5---------|
       A|---7-7-7-7---7-7-5-7-|

E
iza razuma lezi moja sjena
G         B          C   H
ti si kao lija posve izgubljena ucini me stvarnim
E
ostao sam u bezumlju
G           B           C     H
u svom prosirenom snu dodirni me ucini me stvarnim
E
nemam nista nacu cvet
G             B           C     H
samo da budem kraj tebe dodirni me ucini me stvarnim
E
posle svega moja je briga
G          B        C     H
smrtonosna navika dodirni me ucini me stvarnim

G          F              riff 1
iza razuma lezi moja sjena
G         F               riff 1
ali vjera nije izgubljena
G             F           riff 1
ja sam osmjeh ja sam ptica
G            F            C
ja sam lutak iskrivljenog lica ,dodirni me, ucini me stvarnim