Bare Goran - Nije Lako

Transkripcija: fler ( mrwhite@net.hr )

  

     Intro :

      gtr I 

 e|-----------------------|----------------------|
 B|-----------------------|----------------------|
 G|---------6------9p7-9--|--7-----------9----9--|
 D|--9----9-7------9p7-9--|--7-9---7-----9----9--|
 A|--9----9-7----0-7---7--|--5-9---7---0-7----7--|
 E|--7------5----0--------|----7---5---0---------|

 e|------------------|-------------------------|------------------|
 B|------------------|-------------------------|------------------|
 G|*-----------------|-7-----------------------|--9-9-7-9-9--9\--*|
 D|*-7h9-9-9--9-9-9--|-7-9-9-9--9-9-7-7-7~-7-7-|--9-9-7-9-9--9\--*|
 A|--7h9-9-9--9-9-9--|---9-9-9--9-9-7-7-7~-7-7-|------------------|
 E|------------------|-------------------------|------------------|

            
      gtr II

 e|-----------------------------|----------------------------------------|
 B|-----------------------------|----------------------------------------|
 G|--------7--9b11~--9b11r9p7-9-|------------7---------------------------|
 D|--7h9~--9--9b10~--9b10r9p7-9-|-7h9-9--7h9---9-9~-9-------7------------|
 A|--7~-------------------------|-7-------------------7h9-9---9\7-5h7-7~-|
 E|-----------------------------|----------------------------------------|
  
 e|----------------------|------------------------------|
 B|----------------------|------10-10--10---------------|
 G|--------------7-----7-|-9b11-----------9b11r9p7-9-9~-|
 D|--7h9-9~--7h9---9-9---|------------------------------|
 A|----------------------|------------------------------|
 E|----------------------|------------------------------|

 e|-----------------------|--------------------------|
 B|-----------------------|--------------------------|
 G|--------------7--------|--------------------------|
 D|--7h9-9~--7h9---9-9--9-|-------7-7----------------|
 A|-----------------------|-7h9-9-----9\7~--5-7-7~\--|
 E|-----------------------|--------------------------|
      


      Strofa :

       gtr I 
                                                1.,2.,3.               
 e|------------------|-------------------------|------------------|
 B|------------------|-------------------------|------------------|
 G|*-----------------|-7-----------------------|--9-9-7-9-9--9\--*|
 D|*-7h9-9-9--9-9-9--|-7-9-9-9--9-9-7-7-7~-7-7-|--9-9-7-9-9--9\--*|
 A|--7h9-9-9--9-9-9--|---9-9-9--9-9-7-7-7~-7-7-|------------------|
 E|------------------|-------------------------|------------------|
   
    4. 
 e|--------------------|----------------------------|
 B|--------------------|----------------------------|
 G|--7-9-9-7-9-9-7-9\--|--7-9-9-7-9-9-7-9--9--7-9\--|
 D|--7-9-9-7-9-9-7-9\--|--7-9-9-7-9-9-7-9--9--7-9\--|
 A|--------------------|----------------------------|
 E|--------------------|----------------------------|

       gtr II

 e|-----------------------|---------------------|----------------------|
 B|-----------------------|---------------------|----------10-----10~--|
 G|----9~-9\7-7~-9p7-7-9~-|-------------7-------|--7-7~--7--9b11---9~--|
 D|--7-9~-9\7-7~-9p7-7-9~-|-7h9-9~--7h9-9-9-9-9-|--7-7~--7-------------|
 A|-----------------------|---------------------|----------------------|
 E|-----------------------|---------------------|----------------------|

 e|---------------------|---------------------|---------------------|
 B|---------------------|---------------------|---------------------|
 G|-------------7-------|---------------------|-------------7-------|
 D|-7h9-9~--7h9-9-9-9-9-|-9--7-7\--7h9-7--9\--|-7h9-9~--7h9-9-9-9-9-|
 A|---------------------|----7-7\--7---7--7\--|---------------------|
 E|---------------------|---------------------|---------------------|

 e|--------------------|------------------------------|
 B|--------------------|------------------------------|
 G|--7-9-9-7-9-9-7-9\--|--7-9-9-7-9-9-7-9-9-7-9p7-9p7-|
 D|--7-9-9-7-9-9-7-9\--|--7-9-9-7-9-9-7-9-9-7-9p7-9p7-|
 A|--------------------|------------------------------|
 E|--------------------|------------------------------|
      

       Refren :   ( Fig. 1 )


 e|-----------------------|----------------------------|
 B|-----------------------|----------------------------|
 G|-----------------------|--5h7-7-7--7-7--7---5-5-7p5-|
 D|--7-7--7--7----5--5-5--|--5h7-7-7--7-7--7---5-5-7p5-|
 A|--7-7--7--7----5--5-5--|--5---5-5--5-5--5-0-3-3-5---|
 E|--5-5--5--5-0--3--3-3--|----------------------------|

 e|-----------------------|-------------------------|
 B|-----------------------|-------------------------|
 G|-----------------------|--5h7-7-7--7-7--7---5~---|
 D|--7-7--7--7----5--5-5--|--5h7-7-7--7-7--7---5~---|
 A|--7-7--7--7----5--5-5--|--5---5-5--5-5--5-0-3~---|
 E|--5-5--5--5-0--3--3-3--|-------------------------|
 
 e|-----------------------|----------------------------|
 B|-----------------------|----------------------------|
 G|-----------------------|--5h7-7-7--7-7--7---5-5-7p5-|
 D|--7-7--7--7----5--5-5--|--5h7-7-7--7-7--7---5-5-7p5-|
 A|--7-7--7--7----5--5-5--|--5---5-5--5-5--5-0-3-3-5---|
 E|--5-5--5--5-0--3--3-3--|----------------------------|

 e|-----------------------|----------------------------|
 B|-----------------------|----------------------------|
 G|-----------------------|--7-9-9-7-9-9-7-9--9--7-9\--|
 D|--7-7--7--7----5--5-5--|--7-9-9-7-9-9-7-9--9--7-9\--|
 A|--7-7--7--7----5--5-5--|----------------------------|
 E|--5-5--5--5-0--3--3-3--|----------------------------|
      

       Prijelaz :

          gtr I

 e|------------------------|-----------------------|
 B|------------------------|-----------------------|
 G|------------------------|-7h9-9--9-9-9---9-9-9--|
 D|--9--9---9-9-9---7-7-7--|-7h9-9--9-9-9---9-9-9--|
 A|--9--9---9-9-9---7-7-7--|-7---7--7-7-7-0-7-7-7--|
 E|--7--7---7-7-7-0-5-5-5--|-----------------------|

 e|--------------------|-----------------------------------|
 B|--------------------|-----------------------------------|
 G|-------------7------|--------------------9-9-7--9--9-9\-|
 D|--9--9~--7h9-7-9-9--|--9-9--7--7-7--7-7--9-9-7--9--9-9\-|
 A|--9--9~--7h9---9-9--|--9-9--7--7-7--7-7-----------------|
 E|--7--7~-------------|--7-7--5--5-5--5-5-----------------|
           
         gtr II
  
 e|----------------------|------------------------------|
 B|----------------------|------10-10--10---------------|
 G|--------------7-----7-|-9b11-----------9b11r9p7-9-9~-|
 D|--7h9-9~--7h9---9-9---|------------------------------|
 A|----------------------|------------------------------|
 E|----------------------|------------------------------|

 e|-----------------------|--------------------------|
 B|-----------------------|--------------------------|
 G|--------------7--------|--------------------------|
 D|--7h9-9~--7h9---9-9--9-|-------7-7----------------|
 A|-----------------------|-7h9-9-----9\7~--5-7-7~\--|
 E|-----------------------|--------------------------|
      

       Strofa (uz male varijacije)

       Refren

       Solo :
 
  - gtr I svira Fig. 1
       
       gtr II

 e|------------------------|----------------------|-------------------------------|
 B|--10--10--10------------|----------------------|-------------------------------|
 G|---9---9---9-9-7p5----5-|-7p5----5--7p5----5~--|-----5-----5-----5-----5-----5-|
 D|-------------------7--7-|-----7--7------7--7~--|-5h7---5h7---5h7---5h7---5h7---|
 A|------------------------|----------------------|-------------------------------|
 E|------------------------|----------------------|-------------------------------|
 
 e|-------------------------|----------------------------------|
 B|------8-8--8-------------|--------8-8-----8-----8-----8---8-|
 G|--7b9--------7b9r7p5--7~-|-7--7b9-----7h9---7h9---7h9---7---|
 D|-------------------------|----------------------------------|
 A|-------------------------|----------------------------------|
 E|-------------------------|----------------------------------|

 e|---------------------|-------------------------|-------------------------|
 B|---------------------|-------------------------|-------------------------|
 G|-/9--7--7p5----------|-------------------------|-------------5-----------|
 D|-------------7-7~-7--|------5-5-5--------------|-------5-5h7---7-7--7~\--|
 A|---------------------|--5h7--------7p5-3-5-3~--|-5h7-7-------------------|
 E|---------------------|-------------------------|-------------------------|


       Refren :

  - gtr I svira Fig. 1

       gtr II

 e|----------------------|------------------------------|
 B|----------------------|------10-10--10---------------|
 G|--------------7-----7-|-9b11-----------9b11r9p7-9-9~-|
 D|--7h9-9~--7h9---9-9---|------------------------------|
 A|----------------------|------------------------------|
 E|----------------------|------------------------------|

 e|-----------------------|----------------------------------|
 B|-----------------------|-10b12-10-7----------10-----------|
 G|---------------7-----9-|------------9b11-9b11--11-11-11r9-|
 D|--7h9-9-9--7h9---9-9---|----------------------------------|
 A|-----------------------|----------------------------------|
 E|-----------------------|----------------------------------|

 e|-----------------------|-------------------------------|
 B|-----------------------|-------------------------------|
 G|-7---9p7---------------|-------------------7-----------|
 D|---9-----9-9~---7-9-9~-|-----7--7--7-7-7h9---9--9-9-9~-|
 A|--------------9--------|-7h9---------------------------|
 E|-----------------------|-------------------------------|

 e|-------------------------|--------------------|
 B|-------------------------|--------------------|
 G|--------------7----------|--7-9-9-7-9-9-7-9\--|
 D|--7h9~-9--7h9---9-9--9~--|--7-9-9-7-9-9-7-9\--|
 A|-------------------------|--------------------|
 E|-------------------------|--------------------|
      
      
       Kraj :

 e|----------------------------|-----------------------------------||
 B|----------------------------|-----------------------------------||
 G|--7-9-9-7-9-9-7-9--9--7-9\--|--9--9--9--9--9--9--9--9--9~-------||
 D|--7-9-9-7-9-9-7-9--9--7-9\--|--9--9--9--9--9--9--9--9--9~-------||
 A|----------------------------|--7--7--7--7--7--7--7--7--7~-------||
 E|----------------------------|-----------------------------------||





           Nije lako
           kada moras 
           Nije lako
           kada znas
           Nije lako
           biti sam
           kada si neobican
       
             Nije lako
             pogledaj me
             Nije lako
             muka mi je
             Nije lako
             ucini to polako
             Nije lako
             zivjeti tako

           Nije lako
           kada moras
           i vidis sebe
           kako hodas
           Nije lako
           biti sam
           kada si neobican