Bare Goran - Rodjenje

Transkripcija: MARKO POLO (na akusticnoj)
Album        : Put do srca sunca


Samo za pocetak, u uvodu se cuje sta ja mislin da je slide gitara
i cini mi se da se svira na G zici sa malin varijantama, evo: ss-slow
slide

		G--/7~~--7ss5~~~---]-tako te varijante sa te dvi note(D i C)

Uvod: 
  D				   C
e------------------------------------------0--------------------------]
B-------3-3-3--3--3--3--3--3--3-0------------1------1--1----------1---]
G---0h2---2-------------------2----------0-------0--------------0---0-]
D-0----------0--0--0--0--0--0----------0-------2------2--2--0h2-------]
A----------------------------------2/3--------------------------------]
E---------------------------------------------------------------------]

e-------------------------------------------0--0~----]
B-3-----3-3-3--3--3--3--3--3--3-0------------1-1~----]
G-2-0h2---2-------------------2----------0-----0~----]
D------------0--0--0--0--0--0----------0-------2~----]
A----------------------------------2/3---------3~----]
E----------------------------------------------------]

Verse: sviraj 2x prije(nemoras da sviras hammer-on kad pocne da piva)
  D				  C
e----------------------------------------0----------------------------]
B-3-----3-----3------3-------3-------------1------1---1----------1----]
G-2---2---2-----2----------0---2------0--------0---------------0---0--]
D-0-0-------0-----0----0h2----------0--------2------2---2--0h2--------]
A---------------------------------3-----------------------------------]
E---------------------------------------------------------------------]
    Proci cu kroz prolaz koji me zoves dugo
    sve sto je proslo, proslo je jako brzo
    ne razumjem zasto places, bilo je zaista lijepo
    sad sam tu gdje jesam, ohhhhhh i gledam

  D     C?    D?
e-2../...5../...7.../..7-2./.5./.7-----]
B-3../...6../...8.../..8-3./.6./.8-----]
G-2../...5../...7.../..7-2./.5./.7-----]
D--------------------------------------]
A--------------------------------------]
E--------------------------------------]
  mjesecccccccccccccc



Chorus: 
    D		    C        D          C
    Samo se smijesi ljubavi, dao bih ti sve, 
    D          C      D         C
    dao bih ti zivot, jedna noc jeeeeeeeeeee

  D
e----------------------------------------0---0--------]
B-3-----3-----3------3-------3-------------1-1--------]
G-2---2---2-----2----------0---2------0------0-----00-]
D-0-0-------0-----0----0h2----------0--------2-0h2----]
A---------------------------------3----------3--------]
E-----------------------------------------------------]

Verse 2: isti nacin sviranja

    Sve sto sam dobio to sam drugima dao
    zato sada cekam ohhhhhhhh i nijemi lako
    ohhhhhhh dok gledam mjesec

Chorus: isto, samo na kraju sviraj

e-2..--x-------------------------------]
B-3..--1..-----------------------------]
G-2..--0..-----------------------------]
D-x----2..----5--55.---------3---------]
A------3..----5--55.-----3h5---5-3-0---]-3 ili 4x
E------x------3--33.-3h5---------------]
 
onda chorus pa,

Outro:

e-2..--x------------------------------]
B-3..--1..----------------------------]
G-2..--0..----------------------------]
D------2..---5--55---------3----------]
A------3..---5--55-----3h5---5-0------]
E------x-----3--33-3h5----------------]

 Proci cu kroz vrata koja me zovu vec dugo
 sve sto je proslo proslo je jako brzo
 ne razumjem zasto places, jedna noc, ljetnja noc, jeeee

 Za kraj

  D     C?    D?
e-2../...5../...7.../..7-2./--5-----7----2-2-2-2-2---2--]
B-3../...6../...8.../..8-3./---6-----8---3--3-3-3-3--3--]
G-2../...5../...7.../..7-2./5---5/7---7--2---2-2-2-2-2--]
D-------------------------------------------------------]
A-------------------------------------------------------]
E-------------------------------------------------------]
 eee.......

../..-slusaj pismu koliko puti tribas da udres
h-hammer on
x-nemoj te zice svirat
~-vibrate

Slusaj pismu za ritam ;-)

Adio

***VERZIJA 2***
Transkripcija: ivan3 - a38@net.hr

ova moja verzija ima drugaciji refren, outro i bridge sa napisanim akordima.
Marku Polu je sve ostalo O.K i dao je dobra objasnjenja, neka ovo bude 2.verzija
te pjesme, bez prekrajanja. 

Pjesma se u originalu svira sa capo-om na 1.polju, znaci u D# tonalitetu, tako
da su obe verzije spustene za pola stupnja.

Verse : D  C
Bridge: D  F  G
Refren: D  C  G
Outro : D5 F5 C5 G5