Bare Goran - Sveti Planet

Transkripcija: fler ( mrwhite@net.hr )



   Intro :      ( Rhy. fig. 1 ) 

      gtr I 
                                   1.,2.,3.
 e|-------------------------------|------------------------|-----------------------------|
 B|-------------------------------|------------------------|-----------------------------|
 G|*------------------------------|------------------------|----------------------------*|
 D|*--6-----6\--9--4---4---6-4-6--|------------------------|----------------------------*|
 A|---4-----4\--7--2---2---2-2-4--|--4---4---6-----4--4--6-|--4---4---6------6--4--------|
 E|-------------------------------|--2---2---2-----2--2--2-|--2---2---2------------6/9---|
  |
  |   gtr II
  |
 e|-------------------------------|------------------------|-----------------------------|
 B|-------------------------------|------------------------|-----------------------------|
 G|*--6-6p4-6---9--4-4-6p4-4-4-6--|------------------------|----------------------------*|
 D|*--6-6p4-6---9--4-4-6p4-4-4-6--|-11--11--13p11-11-11-13-|-11--11--13p11--11-11-11-\--*|
 A|-------------------------------|--9---9---9-----9--9--9-|--9---9---9------9--9--9-\---|
 E|-------------------------------|------------------------|-----------------------------|

    4.
 e|-------------------------|-------------------------------|
 B|-------------------------|-------------------------------|
 G|-------------------------|-------------------------------|
 D|-------------------------|-------------------------------|
 A|--4---4---6-----4--4--6--|--4---4---6--------------------|
 E|--2---2---2-----2--2--2--|--2---2---2-----0--0--1---2~---|
  |
  |
 e|-------------------------|-------------------------------|
 B|-------------------------|---------------11-11-12-12/14~-|
 G|-------------------------|---------------11-11-11--------|
 D|-11--11--13p11-11-11-13--|-11--11--13p11-----------------|
 A|--9---9---9-----9--9--9--|--9---9---9--------------------|
 E|-------------------------|-------------------------------|


    Strofa :

 e|------------------------------|----------------------------|
 B|------------------------------|----------------------------|
 G|------------------------------|----------------------------|
 D|------4-4---------------------|-----------8--8-8--6--6--6--|
 A|------4-4--6---6--4-------4~--|-4-4--4--4-4--4-4--4--4--4--|
 E|--(2)-2----2---2--2--4h6------|-2-2--2--2------------------|
  |
  |
 e|------------------------------|----------------------------|
 B|-(14)-------------------------|----------------------------|
 G|------11--13--13-11-------11~-|-11--11---13--11--11-11-11\-|
 D|------11--11--11-11-------11~-|-11--11---11--11--11-11-11\-|
 A|--------------------11h13-----|----------------------------|
 E|------------------------------|----------------------------|


 e|----------------------------|-----------------------------------|
 B|----------------------------|-----------------------------------|
 G|----------------------------|-----------------------------------|
 D|--4---4------4---4-4-----4~-|--4---4--4---6---4----6------4-----|
 A|--2---2------2---2-2-4h6----|--2---2--2---2---2----2------2-----|
 E|----------------------------|-----------------------------------|
  |
  |
 e|----------------------------|-----------------------------------|
 B|----------------------------|-----------------------------------|
 G|-------------------------4~-|-11--11-11--13--11-11-------11-11\-|
 D|--4--4-6-4--4-6-4--4-----4~-|-11--11-11--11--11-11-------11-11\-|
 A|--2--2-2-2--2-2-2--2-2h4----|----------------------11h13--------|
 E|----------------------------|-----------------------------------|
   
     PreChorus :

 e|-----------------------------|-------------------------|
 B|-----------------------------|-------------------------|
 G|------2------2---2---2-------|----4--------------------|
 D|--2---2------2---------------|----4--------------4-4~~-|
 A|--0---0---0--------------4-0-|--2----0h2-4--4/6--------|
 E|-----------------------------|-------------------------|
  |
  |
 e|-----------------------------|-------------------------|
 B|-----------------------------|-------------------------|
 G|-----------------------------|-------------------------|
 D|--2-2-4-2-5--4-2-2-4-2-5-5-4-|--4-4-2-4-2--4--4--4-2---|
 A|--0-0-0-0-0--0-0-0-0-0-0-0-0-|--2-2-0-2-0--2--2--2-0---|
 E|-----------------------------|-------------------------|
    

   Chorus ( Rhy. fig. 1 )

   Strofa
  
   PreChorus

   Chorus

   Solo :
       
        gtr I ( ritam )

 e|-----------------------------|--------------------------|
 B|-----------------------------|--------------------------|
 G|-----------------------------|--4-4-4--4-4--4-4-4--4-4--|
 D|--4--4--6p4-6p4--4--6p4-6p4--|--4-4-4--4-4--4-4-4--4-4--|
 A|--2--2--2---2----2--2---2----|--2-2-2--2-2--2-2-2--2-2--|
 E|-----------------------------|--------------------------|

 e|-----------------------------|------------------------------||
 B|-----------------------------|------------------------------||
 G|-----------------------------|--6-6-6--6-6--6-6-6-----------||
 D|--4--4--6p4-6p4--4--6p4-6p4--|--6-6-6--6-6--6-6-6-----------||
 A|--2--2--2---2----2--2---2----|--4-4-4--4-4--4-4-4-----------||
 E|-----------------------------|---------------------0-0-1-2~-||
        
         gtr II

 e|--------------------------------|-------------------------|---------------------------|
 B|--------12-12----12-12------12--|-------------------------|---------------------------|
 G|--/9b11-------11-------9b11-----|--9-9b11r9p7--/9--7~~-\--|---------------------------|
 D|--------------------------------|-------------------------|---------------------------|
 A|--------------------------------|-------------------------|---------------------------|
 E|--------------------------------|-------------------------|--0h2---5/7-9--pb9r7b9~~\--|

 e|----------------------|-----------------------------------------|
 B|----------------------|-----------------------------------------|
 G|----------------------|-----------------------------------------|
 D|----------------------|------------------9--7-------------------|
 A|----------------------|------5--7b9~--9-------9-7--9-7h9--5~~\--|
 E|--0h2--5~---2p0h2~~\--|--/7-------------------------------------|

 e|--------------------------------------------------||
 B|--/8--11b12r11b12r11b12r11------------------------||
 G|--/7--11b12r11b12r11b12r11--11b12r11p9------------||
 D|----------------------------------------11-11~\---||
 A|--------------------------------------------------||
 E|--------------------------------------------------||

     Prijelaz :

         gtr I

 e|-------------------|----------------|-----------------|
 B|-------------------|----------------|-----------------|
 G|-------------------|----------------|-----------------|
 D|----4~-------------|-(4)------------|-----------------|
 A|----4~-------------|-(4)------------|-----------------|
 E|----2~-------------|-(2)------------|-----------------|
  |
  |      gtr II
  |
 e|-------------------|----------------|-----------------|
 B|-------------------|----------------|-----------------|
 G|-------------------|----------------|-----------------|
 D|-------------------|----------------|-----------------|
 A|-/9~~--------------|-(9)------------|-----------------|
 E|-------------------|----------------|-----------------|

      Strofa :

 e|-------------------|------------------|
 B|-------------------|------------------|
 G|------< bas >------|------------------|
 D|-------------------|------------------|
 A|-------------------|----------------0-|
 E|-------------------|------------0-2---|
  |
  |
 e|-------------------|------------------|
 B|-------------------|------------------|
 G|-------------------|------------------|
 D|-------------------|------------------|
 A|-------------------|------------------|
 E|-------------------|------------------|

 e|---------------------------|-----------------------------------|
 B|---------------------------|-----------------------------------|
 G|---------------------------|-----------------------------------|
 D|-4---4------4---4-4-----4~-|--4---4--4---6---4----6------4-----|
 A|-2---2------2---2-2-4h6----|--2---2--2---2---2----2------2-----|
 E|---------------------------|-----------------------------------|
  |
  |
 e|----------------------------|-----------------------------------|
 B|----------------------------|-----------------------------------|
 G|-------------------------4~-|-11--11-13--11--13p11-------11-11\-|
 D|--4--4-6-4--4-6-4--4-----4~-|-11--11-11--11--11----------11-11\-|
 A|--2--2-2-2--2-2-2--2-2h4----|----------------------11h13--------|
 E|----------------------------|-----------------------------------|
   

 e|------------------------------|------------------------|----------------------------|
 B|------------------------------|------------------------|----------------------------|
 G|------------------------------|------------------------|----------------------------|
 D|--6-----6\--9--4---4---6-4-6--|------------------------|----------------------------|
 A|--4-----4\--7--2---2---2-2-4--|--4---4---6-----4--4--6-|--4---4---6-----------------|
 E|------------------------------|--2---2---2-----2--2--2-|--2---2---2------0-0--1--2--|
  |
  |
 e|------------------------------|------------------------|----------------------------|
 B|------------------------------|------------------------|----------------------------|
 G|--6-6p4-6---9--4-4-6p4-4-4-6--|------------------------|----------------------------|
 D|--6-6p4-6---9--4-4-6p4-4-4-6--|-11--11--13p11-11-11-13-|-11--11--13p11---9-9-10-11--|
 A|------------------------------|--9---9---9-----9--9--9-|--9---9---9------7-7--8--9--|
 E|------------------------------|------------------------|----------------------------|
         
       PreChorus :

 e|-------------------------------------------|--------------------------------------------------|
 B|-------------------------------------------|--------------------------------------------------|
 G|-------------------------------------------|--------------------------------------------------|
 D|-------------------------------------------|--------------------------------------------------|
 A|--4--4--6-----4-----6--4-----4--------4--4-|-4--4--------4-----4-----------4-----4------4--4--|
 E|--2--2--2-----2-----2--2-----2----4h6------|-2--2--------2-----2-----------2-----2------2--2--|
  |
  |
 e|-------------------------------------------|--------------------------------------------------|
 B|-------------------------------------------|--------------------------------------------------|
 G|-------------------------------------------|--------------------------------------------------|
 D|-11-11-13p11-11-11-13-11-11-13p11-11-11-13-|-11-11-13p11-11-11-13p11-13p11-13p11-13p11-11-11\-|
 A|--9--9--9-----9--9--9--9--9--9-----9--9--9-|--9--9--9-----9--9--9-----9-----9-----9-----9--9\-|
 E|-------------------------------------------|--------------------------------------------------|

      
     Chorus

     Kraj :  
 
 e|-------------------------|------------------------|---------------------------------------------||
 B|-------------------------|------------------------|---------------------------------------------||
 G|*------------------------|-----------------------*|---------------------------------------------||
 D|*------------------------|-----------------------*|---------------------------------------------||
 A|--------4--6-----4--4--6-|--4--4--6---------------|-------4--6-----4--4--6----6--\--4---4--4~~--||
 E|---(2)--2--2-----2--2--2-|--2--2--2----0-0--1--2--|--(2)--2--2-----2--2--2----2--\--2---2--2~~--||
  |
  |
 e|-------------------------|------------------------|---------------------------------------------||
 B|-------------------------|------------------------|---------------------------------------------||
 G|*------------------------|-----------------------*|---------------------------13b14b13-11-11~~--||
 D|*-(11)-11-13p11-11-11-13-|-11-11-13p11-9-9-10-11-*|-(11)-11-13p11-11-11-13p11-------------------||
 A|---(9)--9--9-----9--9--9-|--9--9--9----7-7--8--9--|--(9)--9--9-----9--9--9----------------------||
 E|-------------------------|------------------------|---------------------------------------------||




              Ti si tako stvarna i mlada
              Svemocnu ljubav osjecas sada
              Zivot je torba puna nemoci
              Ti duso imas predivne oci
              Rasiri malo jace svod svoj
              Budi sveti planet moj

                Voli me snazno

              Vrata mi svoja otvori
              Neka udje zelja koja gori
              Ono sto trebam odmah mi daj  
              U moje oci ubrizgaj sjaj
              Nema vise nespokoja
              Pokazi mi srce medju usnama svojim

                Voli me snazno

              Ti si tako stvarna i mlada
              Mnogo toga si vidjela do sada
              Ponos koji place 
              Jutra koja traju cio dan
              Ti si duso divna kao prekrasan san
              Rasiri malo jace svod svoj
              Budi sveti planet moj

                 Voli me snazno