Bare Goran - Svijet Je Opasan

Transkripcija: Fildzan


Riff 1:
e------------------------------------------------
h------------------------------------------------
g--5-5-5---5-5-5---5-5-5----------3-3-3--5-5-5---
d--5-5-5---5-5-5---5-5-5---5-5-5--3-3-3--5-5-5---
a--------------------------5-5-5-----------------
E------------------------------------------------

*u drugom djelu strofe bi trebala druga gitara jos C5 lupat, 
(hint: poslusat pjesmu)

Riff 2: (Refren)
-------------------------------------------------------------------
-------------------------------------------------------------------
-------------------------------------------------------------------
-7-7-9-7--7-7-9-7--7-7-9-7--7-7-9-7--7-7-9-7--7-7-9-7--------------      X2
-5-5-5-5--5-5-5-5--5-5-5-5--5-5-5-5--5-5-5-5--5-5-5-5--3-3-3--5-5-5-
-------------------------------------------------------1-1-1--3-3-3-

Riff 3:
-----------------------------------------------------------
-----------4-------------4-------------6b-4-6-6-4---4------
-5-3-5-3-5-3---5-3-5-3-5-3---5-3-5-3-5------------5-3------
-----------------------------------------------------------
-----------------------------------------------------------
-----------------------------------------------------------

-----------------------------------------------------------
-----------4-------------4---------------------------------
-5-3-5-3-5-3---5-3-5-3-5-3---5-3-5-3-5--------3-3-3--5-5-5-
---------------------------------------5-5-5--3-3-3--5-5-5-
---------------------------------------5-5-5---------------
-----------------------------------------------------------


Riff1
Ucini sto hoces
Jer imam puno snage
Pored mene proci ces
I unistiti sve svoje osjecaje drage
*Postajem gluh
 S ljubavlju kao svemir velikom
 Oko tebe vristi
 Majmun s mojim likom

Riff2
Svijet je opasan
Moj zivot je san
Danas sam ziv
I sutra cu biti
Sve sto zelim je
Da ostanes i ti

Riff3