Bare Goran - Vrijeme Je Da Se Krene

Transkripcija: Aarnaut@public.srce.hr
Poslao       : Mario (marioloncar@freemail.com)
Home         : http://fly.cc.fer.hr/~janje


Akordi : [D]   [C]   [G]

Nocas je moja tuga poprimila ljuduski oblik
Otvorio sam oci, ispred sebe ugledao svoj lik
Pruzio sam si ruku i rekao 
Pruzio sam si ruku i rekao 

REF:
Hajde, vrijeme je da se krene.
 
 
 
 ***VERZIJA 2***

 Mali intro:
           D   Dsus4 D
e|---------2-2h3-3p2-2-----
H|------3--3-3-3-3-3-3-----
G|------2--2-2-2-2-2-2-----
D|--0h2--------------------
A|-------------------------
E|-------------------------

Stihovi idu C D  
Refren C G D
Bridge C C G G C G G D D D 

Naravno ,to je samo grubi okvir

nocas je moja tuga
poprimila ljudski oblik
otvorio sam oci
ispred sebe ugledao svoj lik
pruzio sam si ruku
i rekao, hajde
vrijeme je da se krene
    
***VERZIJA 3***
Transkripcija: fler ( mrwhite@net.hr )



   Akordi:   C      X32010
             D      X00232
             G      320003
             Dsus4  XX0233
             Dsus2  XX0230


  Intro:

      gtr I (ritam)
  e|------2-2--2--2--3-3p2--2--2-2--|---2-2-2-2--3--3--2--2-2--|--2--2-2-2---0-0---|
  B|--3-3-3-3--3--3--3-3----3--3-3--|---3-3-3-3--3--3--3--3-3--|--3--3-3-3---1-1---|
  G|--2-2-2-2--2--2--2-2----2--2-2--|---2-2-2-2--2--2--2--2-2--|--2--2-2-2---0-0---|
  D|--0-0-0-0--0--0--0-0----0--0-0--|---0-0-0-0--0--0--0--0-0--|--0--0-0-0---2-2---|
  A|------0-0--0--0--0-0----0--0-0--|---0-0-0-0--0--0--0--0-0--|--0--0-0-0---3-3---|
  E|--------------------------------|--------------------------|-------------------|
   |
   |
   |  gtr II (solo)
  e|--------------------------------|--------------------------|-------------------|
  B|--------------------------------|--------------------------|-------------------|
  G|------7~-----------7~-----------|------7-----------7~------|------7------------|
  D|------7~-------7h9-7~-----------|------7---7h9-7h9-7~------|------7----7h9-----|
  A|--7h9---------------------------|--7h9---------------------|--7h9----------9\--|
  E|--------------------------------|--------------------------|-------------------|

   Strofa:
  e|--0--0-------------------|--3--3-----3-------------|--2--2-0-3-0-2--3-3-3-3--|
  B|--1--1-------------------|--0----0---0-------------|--3--3-------3--3-3-3-3--|
  G|--0--0---------0---------|--0-----0--0-------------|--2--2----------2-2-2-2--|
  D|--2--2--2----2---0h2--0--|--0--------0--------0-0--|--0--0----------0-0-0-0--|
  A|--3--3--3--3-------------|--2--------2----0h2------|-------------------------|
  E|-------------------------|--3--------3--3----------|-------------------------|

  e|--3--0-0---2--2-2-2--|--0----0---0------------|--3--3---------3--3--|
  B|--3--3-3---3--3-3-3--|--1----1---1------------|--0--0-0-------0--0--|
  G|--2--2-2---2--2-2-2--|--0----0---0------------|--0------0-----0--0--|
  D|--0--0-0---0--0-0-0--|--2----2---2--2-0h2--0--|--0------------0--0--|
  A|---------------------|--3----3---3------------|--2---------2--2--2--|
  E|---------------------|------------------------|--3------------3--3--|

  e|--3-3--3-------------|--2-3--2----2--2--2-2-2--|--2--2-2--2-2-2--2--2-----|
  B|--0-0--0-------------|--3------3--3--3--3-3-3--|--3--3-3--3-3-3--3--3--X--|
  G|--0-0--0-------------|------------2--2--2-2-2--|--2--2-2--2-2-2--2--2--X--|
  D|--0-0--0--------0-0--|------------0--0--0-0-0--|--0--0-0--0-0-0--0--0--X--|
  A|--2-2--2---0h2-------|-------------------------|--------------0--0--0--X--|
  E|--3-3--3-3-----------|-------------------------|--------------------------|

   Refren:
  e|--0--0--0-0-0-3--3--3-3-3--|--2-2-2--0--2-2-2--3-3--3-3-3-2--|
  B|--1--1--1-1-1-0--0--0-0-0--|--3-3-3--3--3-3-3--3-3--3-3-3-3--|
  G|--0--0--0-0-0-0--0--0-0-0--|--2-2-2--2--2-2-2--2-2--2-2-2-2--|
  D|--2--2--2-2-2-0--0--0-0-0--|--0-0-0--0--0-0-0--0-0--0-0-0-0--|
  A|--3--3--3-3-3-2--2--2-2-2--|--0-0-0--0--0-0-0--0-0--0-0-0-0--|
  E|--------------3--3--3-3-3--|---------------------------------|

  e|--0--0--0-0-0-3--3--3-3-3--|--2-2--2--0--2~-------|
  B|--1--1--1-1-1-0--0--0-0-0--|--3-3--3--3--3~-------|
  G|--0--0--0-0-0-0--0--0-0-0--|--2-2--2--2--2~-------|
  D|--2--2--2-2-2-0--0--0-0-0--|--0-0--0--0--0~-------|
  A|--3--3--3-3-3-2--2--2-2-2--|--0-0--0--0--0~-------|
  E|--------------3--3--3-3-3--|----------------------|

   Prijelaz:
  e|-----------------------|-----------2-2--3-3-2--2--|
  B|--1-1-1---------1-1-1--|--------1--3-3--3-3-3--3--|
  G|--0-0-0--0-0-0--0-0-0--|--0-----0--2-2--2-2-2--2--|
  D|--2-2-2--0-0-0--2-2-2--|--0-----2--0-0--0-0-0--0--|
  A|--3-3-3--2-2-2--3-3-3--|--2-2h3-3-----------------|
  E|---------3-3-3---------|--3-----------------------|

  e|-----------------------|-----------2-2------2-2h3-2--|
  B|--1-1-1---------1-1-1--|--------1--3-3------3-3---3--|
  G|--0-0-0--0-0-0--0-0-0--|--0-----0--2-2--0h2-2-2---2--|
  D|--2-2-2--0-0-0--2-2-2--|--0-----2--0-0--------0---0--|
  A|--3-3-3--2-2-2--3-3-3--|--2-2h3-3--------------------|
  E|---------3-3-3---------|--3--------------------------|

  e|--2-0------------------|-----------2-2--2h3-3-3p2-2--|
  B|--3-1-1-------------1--|--------1--3-3--3---3-3---3--|
  G|--2-0-0--0-0-0------0--|--0-----0--2-2--2---2-2---2--|
  D|--0-2-2--0-0-0------2--|--0-----2--0-0--0-----0---0--|
  A|----3-3--2-2-2--2h3-3--|--2-2h3-3--------------------|
  E|---------3-3-3---------|--3--------------------------|

  e|--2p0------------------|----------2~---------3p2---|
  B|--3---1-------------1--|----------3~------------3--|
  G|--2---0--0-0-0------0--|--0-------2~---------------|
  D|--0---2--0-0-0------2--|--0-------0~---------------|
  A|------3--2-2-2--2h3-3--|--2-2h3--------------------|
  E|---------3-3-3---------|--3------------------------|

   Solo:  

        ritam:  D  C  G  D   ( x2 )

  gtr II
  e|------------------8----8-------|----------------------------|
  B|------7~-----9b11---11---11r9--|-------------------7--------|
  G|--/7--9~-----------------------|--9b11-7---7---5~--7b9--5~--|
  D|--/7---------------------------|---------9-----5~-----------|
  A|-------------------------------|----------------------------|
  E|-------------------------------|----------------------------|

  e|------------------------10------------|-----------------------------|
  B|------------8/10--10b12----10b12--8~--|----8---8\-------------------|
  G|-----5/-----7/9-----------------------|--9---9------/7--7-----------|
  D|--5-----------------------------------|-------------/7-----10--7~\--|
  A|--------------------------------------|-----------------------------|
  E|--------------------------------------|-----------------------------|

  e|---------------------------|--8----8----8----8----8----------------|
  B|---------------------------|--8b10---10---10---10----6b8-----------|
  G|-----7----7~-7--7-7h9-7~\--|-----------------------------7~---7~\--|
  D|--10---10------------------|--------------------------------7------|
  A|---------------------------|---------------------------------------|
  E|---------------------------|---------------------------------------|

  e|--------------------------10-------|--------------------8----8--|
  B|--------------------8/10~----10b12-|--8---8~--8\--/9b11---11----|
  G|--5~--7b9-5~----5/--7/9~-----------|----9-----------------------|
  D|--5~---------5---------------------|----------------------------|
  A|-----------------------------------|----------------------------|
  E|-----------------------------------|----------------------------|

  e|---------------------|-------8----8---------------||
  B|---------------------|--9b11---11-----------------||
  G|--9b11--7---7~--7\---|----------------9b11--7~~\--||
  D|----------7----------|----------------------------||
  A|---------------------|----------------------------||
  E|---------------------|----------------------------||


    Refren:
  
  gtr II
  e|-----------------------------|-----------------------|
  B|--1-1--0-0--0----------------|----------------10--9--|
  G|--0-0--0-0--0----------------|----------------9---9--|
  D|--2-2--0-0--0----------------|------9~\--7h9---------|
  A|--3-3--2-2--2------5-5h7--5~-|--/9--9~\--------------|
  E|-------3-3--3--5h7-----------|-----------------------|

  e|-------------------------------|-----------------------|
  B|-------------------------------|-----------------------|
  G|-------7--9b11-9b11-9b11r9--7--|--9~-9~-9b11r9--7--7~--|
  D|--7h9--7-----------------------|-----------------------|
  A|-------------------------------|-----------------------|
  E|-------------------------------|-----------------------|

  e|-----------------------10~--|--10-------------------------------|
  B|----------------------------|-----------------------10----------|
  G|------7--7h9--7~--9b11------|------11r9b11--9b11-11----11r9--7--|
  D|--7h9-----------------------|-----------------------------------|
  A|----------------------------|-----------------------------------|
  E|----------------------------|-----------------------------------|

  e|-------10---------------------------------|-------------------10-----------|
  B|----------10------------------------------|--------------------------------|
  G|--9b11-------11r9p7--9-9--9~--9b11r9--7~--|-----7--9--7--9b11----9b11--11--|
  D|------------------------------------------|-7h9----------------------------|
  A|------------------------------------------|--------------------------------|
  E|------------------------------------------|--------------------------------|

  e|--7-------10--------------10--|------------------------------|
  B|----10b12----12r10----7~------|------------------------------|
  G|--------------------9---------|--pb11r9--7-/9-/9-9b11r9--7~--|
  D|------------------------------|------------------------------|
  A|------------------------------|------------------------------|
  E|------------------------------|------------------------------|

    Kraj:
  e|--2~----2--0---3--0-----2----||
  B|--3~----3----3------3---3----||
  G|--2~----2---------------2----||
  D|--0~----0---------------0----||
  A|-----------------------------||
  E|-----------------------------||


  ---------------------------------------------------------------------


           Nocas je moja tuga poprimila ljudski oblik
           Otvorio sam oci, 
           Ispred sebe ugledao svoj lik
           Pruzio sam si ruku, i rekao 
           Pruzio sam si ruku, i rekao 

           Hajde, vrijeme je da se krene.