Bare Goran - Zbunjen I Osamucen

Transkripcija: Fildzan


Intro:
(za tocan tajming poslusat pjesmu)
e---------------|---------------------|---------------------|------------------------
h---------------|---------------------|---------------------|------------------------
g---------------|---------------------|---------------------|------------------------
d-----7-7-7-7-7-|-----------7-x-7-7-7-|-----------7-x-7-7-7-|-----------7-7-7-7-7----
a-----7-7-7-7-7-|-----------7-x-7-7-7-|-----------7-x-7-7-7-|-----------7-7-7-7-7----
E-8-5-5-5-5-5-5-|-5-8-5-8-5-5-x-5-5-5-|-5-8-5-8-5-5-x-5-5-5-|-5-8-5-8-5-5-5-5-5-5----

e------------------------------------------------------------------------------------
h---------------------------------------------------------------5----5---------------
g-----------------7b------------------------------7h5-5--7h5-7b---7b---7b-7b--5------
d-----------------7b------------------------------------------------------------7----
a------------------------------------------------------------------------------------
E------------------------------------------------------------------------------------


Riff:
--------------------|---------------------|---------------------|--------------------
--------------------|---------------------|---------------------|--------------------
--------------------|---------------------|---------------------|--------------------
----------7-7-7-7-7-|-----------7-x-7-7-7-|-----------7-7-7-7-7-|-----------7-x-7-7-7
----------7-7-7-7-7-|-----------7-x-7-7-7-|-----------7-7-7-7-7-|-----------7-x-7-7-7
5-8-5-8-5-5-5-5-5-5-|-5-8-5-8-5-5-x-5-5-5-|-5-8-5-8-5-5-5-5-5-5-|-5-8-5-8-5-5-x-5-5-5

-------------------------------------------------------------------------------------
-------------------------------------------------------------------------------------
----5-----------------7---5---------------------5-----------------7------------------
----5-----------------7---5---------------------5-----------------7---7--------------
----------------------------------------------------------------------7--------------
----------------------------------------------------------------------5--------------


Refren:
C5         D5
zbunjen i osamucen
A5
ne zelim da ostanem
...


Tekst:
(Intro)
(Riff)
zbunjen i osamucen
zelim da zaboravim
zbunjen i osamucen
zelim da se izgubim
zelim da se izgubim
zbunjen i osamucen
zbunjen i osamucen
zelim da se probudim

(Refren)
zbunjen i osamucen
ne zelim da ostanem
zbunjen i osamucen
ne zelim da postanem
zbunjen i osamucen
ne zelim da razumijem
zbunjen i osamucen
roden sam da nestanem

(Riff)
zbunjen i osamucen
zelim da zaboravim
zbunjen i osamucen
zelim da se izgubim
zelim da se izgubim
zbunjen i osamucen
zbunjen i osamucen
zelim da se probudim

(Refren)
zbunjen i osamucen
ne zelim da ostanem
zbunjen i osamucen
ne zelim da postanem
zbunjen i osamucen
ne zelim da razumijem
zbunjen i osamucen
roden sam da nestanem

(Refren)
zbunjen i osamucen
ne zelim da ostanem
zbunjen i osamucen
ne zelim da postanem
zbunjen i osamucen
ne zelim da razumijem
zbunjen i osamucen
roden sam da nestanem