Bare Goran - Znam Ono Sto Treba Da Znam

Transkripcija: FenderMaster
Album        : Milost


uvodni riff
-------------------------------------------------------------
-------------------------------------------------------------
-------------------------------------------------------------
---2-4-----------4--4--4--4------2-4----------4--4--4--5--4--
--------2-4-(0)--2--2--2--2-----------2-4-(0)-2--2--2--7--2--
-------------------------------------------------------------

-------------------------------------------------------------
-------------------------------------------------------------
-----------------------------------------------------------4--
---2-4-----------4--4--4--4------2-4-----------5-----------2--
--------2-4-(0)--2--2--2--2-----------2-4-(0)--7--5--5--5-----
--------------------------------------------------7--7--7-----


Akordi: H A

Nocas je zrak usijan
Nemam rijeci samo osjecam
Sretan i nasmijan
Zato sto ne razmisljam
Nogama sam krenuo
Svjetlucavom cistinom
Hodat cu sasvim sam
Sa svojom sramotom i istinom

Znam ono sto treba da znam
Moja snaga je u tome
Sto sam to sto jesam
Znam ono sto treba da znam
Hocu da docekam dan

Nocas imam sve
Imam i ono cega nema
Ja dolazim iz velikog srca
I nisam dio sistema
Oci sam otvorio
Sve je tako krasno
Ispod zvijezda sam stao
Opet mi je sve jasno

Znam ono sto treba da znam
Moja snaga je u tome
Sto sam to sto jesam
Znam ono sto treba da znam
Hocu da docekam dan

Nocas sam cuo pricu
Pricu o novim ocima
Ne trebam nove oci
Dobro vidim ove noci
Lice cu okrenuti
Da nesto jadno vidio ne bih
Zatim cu saznati
I reci nesto vazno sebi

Znam ono sto treba da znam
Moja snaga je u tome
Sto sam to sto jesam
Znam ono sto treba da znam
Hocu da docekam dan