Belan Neno - Ponocna Zvona

Transkripcija: Oliver Dumancic


F          Dm
Ponocna zvona,
Am           C
Odjek spor i lijen,
F             Dm
Bas kao I one noci,
Am             Gm  C  Gm  C
Kada bio sam njen.


/riff 1/
E||-----------------|--------------------||
B||-----------------|--------------------||
G||-----------------|--------------------||
D||------3---3-3/5~-|-------3----5/7-5---||
A||-3-5----5--------|-3--5----5----------||
E||-----------------|--------------------||

Kad mi je rekla,
"Zauvjek sam tvoja,
S tobom cu citav zivot,
Ljubav ti si moja".

/riff 1/

	F           Gm         Bb              Dm  Dm-C
Ref.	Pust je moj grad,hodam polako niz ulicu,
	F                 C                 Bb                F
	Cini mi se kao da joj jos mogu cuti dodir na svome licu,
	F           Gm         Bb              Dm  Dm-C
	Voljeh je vise nego sto ima zvijezda na nebu,
	F                 C                 Bb                Dm Gm Dm Gm
	Sjeti li se ikad mene i Splita, tamo gore u hladnom Zagrebu.

/riff 2/ 2x
E||---------------------||
B||------------6/8\6----||
G||-------7----7/9\7----||
D||--5--7---7-----------||
A||---------------------||
E||---------------------||

Onda je jednom,
Otisla od mene,
Nestala poput traka,
Tanke morske pjene.

/riff 1/

Ref.	Pust je moj grad,hodam polako niz ulicu...

*refren svirati ovako
   Cini mi se kao... joj jos mogu...   dodir na... licu,
E||-1--1---1---1-----0---0---0----0-----------------------------||
B||-------------------------------------3---3---3---1---1---1---||
G||--2---2---2---2------0---0---0----0----3---3---3---2---2---2-||
D||-------------------------------------------------------------||
A||-------------------------------------------------------------||
E||-------------------------------------------------------------||