Bijelo Dugme - A Koliko Si Ih Imala Do Sad

Transkripcija: reuf (quentindoa@hotmail.com)
Album        : Bitanga i princeza (1979)



Uvod: Riff1 (ovo u zagradi svira druga gitara)

  Riff1_A
     Am                                E
 E|-------------------------------------------------------------------------
 H|-------------(-5-5-5-7----------------9-9-9-9--9---9-9-9-9--9-)----------
 G|-------------(-5-5-5-7----------------9-9-9-9--9---9-9-9-9--9-)---------- 1X
 D|-------------(-5-5-5-7----------------9-9-9-9--9---9-9-9-9--9-)----------
 A|-------------------------------------------------------------------------
 E|--5\--5-5-3-5--------------3-4-5-3--0------------------------------------


  Riff1_B
     Am                                E [ovaj se dio malo mijenja-2. i 3. put
                                         - mrsko mi pisat - poslusajte sami)
 E|-------------------------------------------------------------------------
 H|---(5-5-5--------5-5-5-7--------------9-9-9-9--9---9-9-9-9--9--9--9-)----
 G|---(5-5-5--------5-5-5-7--------------9-9-9-9--9---9-9-9-9--9--9--9-)---- 3x
 D|---(5-5-5--------5-5-5-7--------------9-9-9-9--9---9-9-9-9--9--9--9-)----
 A|-------------------------------------------------------------------------
 E|--5\-----5-5-3-5-----------3-4-5-3--0------------------------------------


   Fill1      Fill2                   F             d             G
E|----------|---------------------------------------5-------------3---------
H|----------|-------------------------1-------------6-------------3---------
G|----------|-------------------------2-------------7-------------4---------
D|----------|-------------------------3-------------7-------------5---------
A|--3-2--0--|---3-2--0----------------3---------------------------5---------
E|----------|----------------5---3----1-------------------------------------
     1.strofa      ..dan             .. pusti to  ..otrov        ..osim ...
     2.strofa      ..vec             .. pusti to  ..streca       ..reci


1. Strofa

C
Stani, stani i ne kvari sve
                                 Fill1       Riff1_B
Zagrli me ili radi bilo sta, al' cuti molim te.
C
Stani, stani, necu da znam
                                  Fill2
Sta ti znaci ime neko, neka stara pjesma, neki dan.
Pusti to, ni otrov ni lijek
                                  Riff1_B 2x
Osim toga, ovo je dvadeseti vijek.


2. Strofa - (k'o prva)

Stani, stani, saznacu i sam
Bezveze je da ceprkam stvari koje bole, ja ih znam.
Stani, stani, nemoj mi rec'
Sss sta me briga sta je bilo kad je bilo vec.

Pusti to, ni sreca ni par
Al' reci, a koliko si ih imala do sad.


Refren

G5    A5        C5 A5   G5     A5        C5 A5
 Nije ljubomora,          nije ljubomora
G5    A5         C5    D5 F5
 nije ljubomora,  ipak reciiii
                        Am - > Solo
A koliko si ih imala do sad.


Solo: (kao pratnja se moze svirati Riff1 2X ili samo akordi - a,E)

       Am                                                    E

 E|------8------------------------------------------------------------------
 H|---10----------------------------------------------10--10----------------
 G|----------5-5-5-5-5-5--5-----5-7b8r7-5-7-5---------------9---------------
 D|-------------------------7-----------------7-7---------------------------
 A|-------------------------------------------------------------------------
 E|-------------------------------------------------------------------------
                                          Am
 E|-------------------8-----10b12-8-----10-------10b12-10-8-----------------
 H|---10-10-10--10-10---------------10----10----------------10-8------------
 G|--------------------------------------------------------------9----------
 D|-------------------------------------------------------------------------
 A|-------------------------------------------------------------------------
 E|-------------------------------------------------------------------------
                                  E
 E|------------------------------------------------------------------8------
 H|---------------------------------------8-10-10-10--10-8--10-8--10--------
 G|-7b9-7-5---5--------------5-7--5b7-----x---------------------------------
 D|--------7---7-7-7-7--7-5-------------------------------------------------
 A|-------------------------------------------------------------------------
 E|-------------------------------------------------------------------------


- Onda ide onaj dio gdje se cuje smijeh - tu mislim da svira samo C-D

- Zatim: (nesto kao..)

     Am                     E
 E|--8---10-8-----------------------------12-12-12-12--12-12----------------
 H|----------10--8-10-8-----------------------------------------------------
 G|---------------------9-7-9---7-8-9---------------------------------------
 D|------------------------------------------------------------------------- 2X
 A|-------------------------------------------------------------------------
 E|-------------------------------------------------------------------------

- Opet: 2. strofa i refren i ....kraj.