Bijelo Dugme - Bekrija Sam Cijelo Selo Vice

Transkripcija: Igor Medarevic - mmarko@blic.net 
Home         : www.2akordi.net    



E-----------------    
H--2--------------
G---2---2-0----4--
D----2-----4-2-2--
A-----------------
E-----------------

-------0-0-0-0--0-0-0-0-0-0-0-0--0-0-0-0--0-0-0-0-0-0-0-0-
-------5-5-5-5--2/5-5-5-5-5-5\2--5-5-5-5--2/5-5-5-5-5-5\2-
-------4-4-4-4--1/4-4-4-4-4-4\1--4-4-4-4--1/4-4-4-4-4-4\1-
-----0----------------------------------------------------
--0-2-----------------------------------------------------
----------------------------------------------------------

E--0-0-0-0--0-0-0-0-0-0-0-0--0-0-0-0--0-0-0-0-0-0-0-0-
H--5-5-5-5--2/5-5-5-5-5-5\2--5-5-5-5--2/5-5-5-5-5-5\2-
G--4-4-4-4--1/4-4-4-4-4-4\1--4-4-4-4--1/4-4-4-4-4-4\1-
D-----------------------------------------------------
A-----------------------------------------------------
E-----------------------------------------------------

      E7
    Imo kucu, nemam je

    Imo zemlju, prodo je

    Svo imanje prokocko pa sta, 
           A           E7
    Bio mi ceif, bio mi ceif
           A           H7    
    Bio mi ceif, bio mi ceif, ceif, ceif
   (H      C#   D)    E7             
    Zar je tako nesto grijeh

    Imo dragu, nemam je
    Imam zato druge sve 
    Sve sam pare prokocko pa sta 
    Bio mi ceif, bio mi ceif
    Bio mi ceif, bio mi ceif,ceif,ceif
    Zar je tako nesto grijeh

    H                        (D#F#)
    Bekrija sam, bekrija sam, prvi
    E                      (G#H)
    Bekrija sam, to mi je u krvi  
    H                       (D# F#) 
    Bekrija sam, bekrija sam ljudi 
    E                       (G# H)
    Bekrija sam, bekrija sam ljudi 
    C#                      F#
    Bekrija si, cijelo selo vice,
         A                  H      H    H
    E pa jesam, sta se koga tice, tice
        
    hej,hej,hej


  
Solo:
E------------------------|--12b-10\7--------|-----5---7---8---9-|
H----------10-8-------8--|-----------10-8---|-------------------|
G--9999-7------9-9-7-9-9-|---------------7--|--5p6-6/7-7/8-8/9--|
D---------9--------------|----------------9-|-------------------|
A------------------------|------------------|-------------------|
E------------------------|------------------|-------------------|

E-----------------------|-----------------------------|
H-----------------------|-----12-10-------------------|
G-----9-7---------------|--8p9-----11-11109999--------|
D-7p8----9-987777-------|---------------------12-99\3-|
A----------------10-777-|-----------------------------|
E-----------------------|-----------------------------|

E---------------------------------
H---------------------------------
G-2/4b-4b-4b-4b-4b-4b-4b-4b-4b/1--
D---------------------------------
A---------------------------------
E---------------------------------