Bijelo Dugme - Deder Bona Sjeti Se

Transkripcija: Igor Medarevic - mmarko@blic.net
Home         : www.2akordi.net


INTRO bass:
G B G C, G B G F, G#, D# B D#, D A

  FG                    FG      B A
Dede bona sjeti se, de tako ti svega
Stani, stani ili prodji
Jel ti bolje samnom bi, ili sad uz njega
Stani, stani ili prodji
        F                D#
Ko ce znati zensko srce
Ko ga zna, ko ga zna

Podsjeti se, boli me, kada s drugim ti si
Stani, stani ili prodji
Sad te gledam veselu, mada znam da nisi
Stani, stani ili prodji
Ko ce znati zensko srce
Ko ga zna, ko ga zna

     GBGC
        Znam, on ti moze kupit i srebro i zlato
     GBGF
        Znam, on te moze vodit kud ti srcu drago
              G#                      D#BD#DA
        Ali s njim ti nikad nece biti aaa - a
       FG                 FG
        Kao nekad sa mnom, kao nekad sa mnom


E-------666--555------6-5-|
H-------666--666------6-6-|
G-------555--555------5-5-|
D-------------------------|
A--3--5----------3--5-----|
E--1--3----------1--3-----|

SOLO:

 Figura 1:
E---------------------------|
H--1/3-3/6-6/8--11-11-10-8--|
G---------------10-10--9-7--|
D---------------------------|
A---------------------------|
E---------------------------|

 Figura 2:
E--6p8--6-5-6-5-------5-----8--6--6-5-------|
H---------------8-7-8-----8----------8------|
G-----------------------7--------------7\5--|
D-------------------------------------------|
A-------------------------------------------|
E-------------------------------------------|

Figura 3:
E------------------------------------------------------|
H-------------------3-----------4-3--------------------|
G--------2--3-2-3-5---3-2h3p2-------5-3-2-3-2h3p2------|
D--5-4-5----------------------5-------------------5-5--|
A------------------------------------------------------|
E------------------------------------------------------|

 Figura 4:
E-----------------------------------------------------------|
H-----------------------------------------------------------|
G-----------------------------8-7--7-8-7--7-8-7-------------|
D--8-7--7-8-7--7-8-7--7-8-7------10-----10-----10-8-10-8-7--|
A-----10-----10-----10-----10-------------------------------|
E-----------------------------------------------------------|

E--------------------------------------------
H--------------------------------------------
G-----------------------------10-9--9-10-9--9
D--8-7--7-8-7--7-8-7--7-8-7-------12------12-
A-----10-----10-----10-----10----------------
E--------------------------------------------

---------------------------------------|
-10p0h8p0-----------------11/13\11-10--|
---------10p0h9p0-7-/8-5\3-------------|
---------------------------------------|
---------------------------------------|
---------------------------------------|

Figura 5:
E-----------------------------------------------------------|
H-----------------------------------------------------------|
G-----------------------------8-7--7-8-7--7-8-7-------------|
D--8-7--7-8-7--7-8-7--7-8-7------10-----10-----10-8-10-8-7--|
A-----10-----10-----10-----10-------------------------------|
E-----------------------------------------------------------|

E---------------------------------------------
H---------------------------------------------
G-----------------------------10-9--9-10-9--9-
D--8-7--7-8-7--7-8-7--7-8-7-------12------12--
A-----10-----10-----10-----10-----------------
E---------------------------------------------

--------------------------11/13\11-10--|
-10p0h8p0-----------------11/13\11-10--|
---------10p0h9p0-7-/8-5\3-------------|
---------------------------------------|
---------------------------------------|
---------------------------------------|

Solo

Figura 1        2x
Klavijature
Figura 2
Klavijature
Figura 2
Klavijature
Figura 2
Figura 3        2x
Figura 4
Figura 5

***VERZIJA 2***
Transkripcija: Nebojsa Stojanovic (kebi@ptt.yu)
Home         : http://www.maris.co.yu

    Eto! Bas hocu!  1976. - A4

                                          INTRO bass:
        Gm*                               GBGC,GBGF,G#,D#BD#,DA
    Dede bona sjeti se, de tako ti svega
    Stani, stani ili prodji                     solo sema: FG,BA    moze i
    Jel ti bolje sa mnom bit, ili sad uz njega  akord sema: Gm*(FGm,Fsus4F)
    Stani, stani ili prodji
        F                    D#o
    Ko ce znati zensko srce
    Ko ga zna, ko ga zna

    Podsjeti se, boli me, kada s drugim ti si
    Stani, stani ili prodji
    Sad te gledam veselu, mada znam da nisi
    Stani, stani ili prodji
    Ko ce znati zensko srce
    Ko ga zna, ko ga zna
     GBGC
        Znam, on ti moze kupit i srebro i zlato
     GBGF
        Znam, on te moze vodit kud ti srcu drago
              G#                      G#BG#DA
        Ali s njim ti nikad nece biti aaa - a
       FG                 FG
        Kao nekad sa mnom, kao nekad sa mnom