Bijelo Dugme - Eto, Bas Hocu

Transkripcija: Igor Medarevic - mmarko@blic.net
Home         : www.2akordi.net


Uvod:
E---------------------------------------
H---------------------------------------
G---------------------------------------
D--7---7---7----------7----7----7-------
A--5-x-5-x-5-x-7---xx-5-xx-5-xx-5-xx-7--
E--------------5---------------------5--

-------------------------------------------
-------------------------------------------
-------------------------------------------
----7----7----7----------7----7----7-------
-xx-5-xx-5-xx-5-xx-7--xx-5-xx-5-xx-5-xx-7--
-------------------5--------------------5--

E------------------------------------
H------------------------------------
G------------------------------------
D----------7-9-7------------7-9-7----
A----------5-7-5-7----------5-7-5-7--
E--0-5-0-5-------5--0-5-0-5-------5--

-----------------------------------
-----------------------------------
-----------------------------------
---------7-9-7------------7-9-7----
---------5-7-5-7----------5-7-5-7--
-0-5-0-5-------5--0-5-0-5-------5--

Gitara 1                 Gitara 2
E----------------------  --10/12-10--10------------
H----------------------  ----------13---13-10------
G--7/9-7---7-----------  --------------------12-\--
D-------10---10-7------  --------------------------
A----------------10-\--  --------------------------
E----------------------  --------------------------

------------------------------------------------------
------------------------------------------------------
------------------------------------------------------
-----------------------------------9---9-9------------
--------------2---2-2--------------7---7-7------------
--5-6-7-8-7-6-0---0-0--3-0-3-0-3/7---------3-0-3-0-3--


        Hm         A           G            A
        Uvijek sam bio pametno dijete, tako kazu
        Hm     A                 G
        Prao zubice, prije rucka rukice
                  F#m        E5
        Za mamine goste ucio pjesmice
        Figura 4
        I staaaaaaaaaaaaaaaaaaaaaaaaaaaaaaaaaaaaaaaaaa

Figura 4
E----------------------------
H----------------------------
G----------------------------
D--7-9-7------------7-9-7----
A--5-7-5-7----------5-7-5-7--
E--------5--0-5-0-5-------5--

-------------------------------------------
-------------------------------------------
-------------------------------------------
---------7-9-7------------7-9-7------------
---------5-7-5-7----------5-7-5-7----------
-0-5-0-5-------5--0-5-0-5-------5-0-5-0-5--

Uvijek sam bio pametan momak i jos sam uvijek
Pametno poceti, fakultet odabrati
Pametno se zeniti, pametno stariti
I staaaaaaaaaaaaaaaaaaaaaaaaaaaaaaaaaaaaaaaaaaa

Ref:
E---------------------------
H---------------------------
G---------------------------
D--7-7----7-7---------------
A--5-5----5-5-------5----5--
E-------------------3----3--

   Pusti, pusti, o, pusti me
   Pusti, pusti, o, pusti me
   Hocu bar jednom, eto, bas hocu

E--------------------------------------
H--------------------------------------
G--------------------------------------
D--7-----------------------------------
A--5-----------------------------------
E----------------------5-6-7--8-7-6-5--

       Da budem blesav i vala neka cu

Pusti, pusti, o, pusti me...

Solo 1
E----------12--10--9--7-7h8p7---------------------
H--12b-~~--------------------10-7h8p7--7----------
G------------------------------------9---9-7------
D--------------------------------------------9-\--
A-------------------------------------------------
E-------------------------------------------------

E-----------19-17-------------------------
H--19b--19b-------17/19-19-17-------------
G----------------------------19-18-19-~~--
D-----------------------------------------
A-----------------------------------------
E-----------------------------------------

-------------------------------------
-------------17--19-17---------------
--17/19-19-19--19-----19-17-19-~~-\--
-------------------------------------
-------------------------------------
-------------------------------------

Prelaz
E----------------------------------
H----------------------------------
G----------------------------------
D----------------------------------
A--2------------2--2------------2--
E--0--3-0-3-0-3-0--0--3-0-3-0-3-0--

Solo 2
E-------------------------------
H-------------------------------
G--7/9-9-9-9-x-7/9-9-9-9-9-9-\--  4x
D--7/9-9-9-9-x-7/9-9-9-9-9-9-\--
A-------------------------------
E-------------------------------

Uvijek sam bio pametan momak....

Ref:

Pusti, pusti, o, pusti me,  3x

* Ovo je stvarno jako lagano

***VERZIJA 2***
Transkripcija: ????
Poslao       : Vlado (vlado.t@hotmail.com)
Home         : http://galeb.etf.bg.ac.yu/~drs/muzika/


[Hm]uvijek sam [A]bio pametno [G]dijete - [A]tako kazu
[Hm]prao zu[A]bice prije rucka [G]rukice
za mamine [F#m]goste ucio [E]pjesmice i [E]sta?

uvijek sam bio pametan momak i jos sam uvijek
pametno poceti fakultet odabrati
pametno se zeniti, pametno stariti i sta?

[D]pusti pusti o [G]pusti me
[D]pusti pusti o [G]pusti me
[D]hocu bar jednom eto [G]bas hocu
[D]da budem blesav i vala neka cu

***VERZIJA 3***
Transkripcija: Nebojsa Stojanovic (kebi@ptt.yu)
Home         : http://www.maris.co.yu


        Eto! Bas hocu!  1976. - B1
        intro:
    A*(Asus4Asus4Asus4A)- sema
    EGEA*- bass,
    DE,DCDCED,ABHCHBE,GE,GE,GE,GE,GE,G
        22 323333 5555555 66 66 65 66 66 6

        Hm         A           G            A
        Uvijek sam bio pametno dijete, tako kazu
        Hm     A                 G
        Prao zubice, prije rucka rukice
                  F#m        E
        Za mamine goste ucio pjesmice
          A*
        I sta?

        Uvijek sam bio pametan momak i jos sam uvijek
        Pametno poceti, fakultet odabrati
        Pametno se zeniti, pametno stariti
        I sta?

        D                G
        Pusti, pusti, o, pusti me
        D                G
        Pusti, pusti, o, pusti me
        D                     G
         Hocu bar jednom, eto, bas hocu
        D              (A B H  C H BA)
        Da budem blesav i vala neka cu