Bijelo Dugme - Ipak Pozelim Neko Pismo

Transkripcija: Ivan Djacic (djacic@yahoo.com)


uvod: A5 (C5 D5 C5) F 6x

A5                  (C5 D5 C5)
Nisam te izgleda volio mnogo
F                                A5 (C5 D5 C5) F
Sve je po starom, al' vise nisam tvoj
A5               (C5 D5 C5)
I nije mi vazno s kime nocas
F                             A5 (C5 D5 C5) F
Slusas li ovu pjesmu i places li
A5            (C5 D5 C5) F
Ipak, pozelim neko pismo
A5            (C5 D5 C5) F
Ipak, mada zajedno nismo

ref:
Dm (G5 A5 C5 A5)
Pisi,
C             G
Pisi ko nekad dva-tri reda
Dm (G5 A5 C5 A5)
Pisi,
C                     G
znam da je guzva i da neces stici
Dm   (G5 A5 C5 A5)
Pisi, opisi mjesta
Am             Hm    C      D      Am  Hm  Am Hm
gdje nas dvoje skupa nikada necemo ici

Ti si zadnji romantik na ovome svijetu
Sto se sporo krece i ceka raj
Malo si samo promijenila glumce
Al' isti je komad, isti je zaplet i kraj

< ref>
< solo= uvod + Dm Am, Dm F>
< strofa 1>
< ref>

!! A5   57xxxx !!
!! C5   xx55xx !!
!! G5   35xxxx !!
!! D5   xx77xx !!


                 ^  ^
/--------------( *  * )--------------\
|====================================|
|        < DjAkOn   StRaSnI >        |
|     CrambambulyPunch@yahoo.com     |
|    CrambambulyPunch@popstar.com    |
\------------------------------------/


***VERZIJA 2***
Transkripcija: Igor Medarevic - mmarko@blic.net
Home         : www.2akordi.net


Riff 1
E------------------------------------
H--------------1-3-1-----------------
G----x-x-------0---0-----------------   6x
D--2-x---2-2-2-----------------------
A--0-----0-0-0---------3-x-3--3-3-3--
E--------------------0-1---1--1-1-1--

Riff 1
Nisam te izgleda volio mnogo
Sve je po starom ,al vise nisam tvoj
Riff 1

Riff 1
I nije mi vazno s kime nocas
Slusas ovu pjesmu i places li
Riff 1

Prelaz:

Riff 1
Ipak,pozelim neko pismo
Riff 1
Ipak,mada zajedno nismo

Ref:
E--------------------------------------------------
H----------------------5--5--5--5------------------
G----------------------4--4--4--4----2-4-5---------
D----------------------2--2--2--2----2-4-5---------
A------------------3------------------------3-3-5--
E----x-x-10-\-3-3-5-5------------------------------

   Pisi. . .           Pisi ko nekad dva,tri reda
   Pisi. . .           Znam da je guzva i da neces stici

E-------------------------------------------------------------5--
H-------------------------------------------------------------5--
G-------------------------------------------------------------5--
D----------------------------------------------------------------
A------------------3-------0--------------2-----3------5---------
E----x-x-10-\-3-3-5-5--------------------------------------------

   Pisi. . .  Opisi mjesta,gdje nas dvoje skupa nikada necemo ici

Gitara 1
E--7---------5---------7----------
H--7---------5---------7----------
G--7---------5---------7----------
D---------------------------------
A---------------------------------
E---------------------------------
|
|Gitara 2
E------------------------------8--
H---------------8-10-10-----------
G------------7/9------------------
D---------------------------------
A---------------------------------
E---------------------------------

Ti si zadnji romantik na ovom svjetu
Sto se sporo krece i ceka raj
Malo si samo promjenila glumce
Al' isti je komad,isti zaplet i kraj

Prelaz:

Ref:

Solo 1
Solo 2

Nisam te izgleda ...

Prelaz:

Ref: 3x

Solo 1

 Gitara 1
E--7---------5---------7--
H--7---------5---------7--
G--7---------5---------7--
D-------------------------
A-------------------------
E-------------------------
|
|Gitara 2
E---------8-7-------------
H-------------------------
G-----7-9-----------------
D--5/7--------------------
A-------------------------
E-------------------------
|
|Gitara 3
E-------------------------
H-------------------------
G----------0-5p4----------
D-------0-2---------------
A-------------------------
E-------------------------

Gitara 1
E------12-17p16-------------------------------------12\11--
H----13-----------13-15-12--12--------------------x--------
G--14-------------------------12-12-11-12-12-12-11---------
D----------------------------------------------------------
A----------------------------------------------------------
E----------------------------------------------------------

E--12--------------------------------------------------17-17-17--
H------13-13-15-12----12---------------------13--15b~~-----------
G------------------14----12-12/14-14-14-14-14--------------------
D----------------------------------------------------------------
A----------------------------------------------------------------
E----------------------------------------------------------------

E--17-12-11-12-14-11h12----------------------------
H------------------------13-12-13-15-12--12--------
G------------------------------------------12--12--
D--------------------------------------------------
A--------------------------------------------------
E--------------------------------------------------

Solo 2

 Gitara 1
E--20-19-17-----8/10-12-13-10-12-8/10-12-13-10-12----------
H----------18------------------------------------13-10b~~--
G----------------------------------------------------------
D----------------------------------------------------------
A----------------------------------------------------------
E----------------------------------------------------------
|
|Gitara 2
E----------------------------------------------------------
H----------------------------------------------------------
G--------------------------------5/7-9-10-7-9-7------------
D----------------------------------------------7b~~--------
A----------------------------------------------------------
E----------------------------------------------------------

Gitara 1
E--19-17-19-17-19/20-19-19/20-19-17----
H----------------------------------18--
G--------------------------------------
D--------------------------------------
A--------------------------------------
E--------------------------------------

 Gitara 1
E--8/10-12-13-10-12--10-------------------------------------
H------------------13--12-13-10-12-9-10-9h10p9--------------
G---------------------------------------------10-10--10-10--
D-----------------------------------------------------------
A-----------------------------------------------------------
E-----------------------------------------------------------
|
|Gitara 2
E-----------------------------------------------------------
H-----------------------------------------------------------
G--5/7-9-10-7-9--7------------------------------------------
D--------------10-9-10-7-9-6-7-6h7p6------------------------
A-----------------------------------8-8--8-8----------------
E-----------------------------------------------------------

Gitara 1
E--20-19------------------15/17-17-17--
H-------20-20-20--20-19-20-------------
G--------------------------------------
D--------------------------------------
A--------------------------------------
E--------------------------------------

Kratke dionice koje se javljaju u pjesmi posle solaza

E------------------------|--8--8--8--8-8/10--
H--3/5-------------------|---10-10-10--------
G-----7-5-7-5------5\4/5-|-------------------
D------------7-5-7-------|-------------------
A------------------------|-------------------
E------------------------|-------------------

E-----------------------|--------------------------
H-----------------------|--------------------------
G--9\7-5-7-5------5\4/5-|--------5-7-7/9-7-5-7-5---
D-----------7-7-7-------|-----5-7---------------7--
A-----------------------|--5/7---------------------
E-----------------------|--------------------------


Srecnu novu godinu zelim svim gitaristima koji posjecuju ovaj sajt.
Pozdrav od Igora


***VERZIJA 3***
Transkripcija: Nedeljkovic Milos (intkonim@sezampro.yu)
               Sale (goma@pop.transit.ru)
Home         : http://2akordi.net


Kreces iz Am na bari spustis na D zatim
slajd na C i zavrsis na F.


Am
Nisam te izgleda volio mnogo
F                        G
sve je po starom, al' vise nisam tvoj.
Am
I nije mi vazno s kim si nocas
F                         G
Slusas li ovu pjesmu i places li.
Am                        F
Ipak, pozelim neko pismo
Am                        F
ipak, mada zajedno nismo.

Ref:
AmG GAmGAm               F       G
Pisi,    pisi ko nekad dva-tri reda
Am    GAmGAm
Pisi,       znam da je guzva i da neces stici
AmG    Am G   Am G   A              H
Pisi, opisi mjesta gdje nas dvoje skupa
C       D       A
nikada necemo ici.


Ti si zadnji romantik na ovome svijetu
sto se sporo krece i ceka raj
Malo si samo promijenila glumce
al' isti je komad, isti je zaplet i kraj.

Evo tablaturnog objasnjenja za rif

|--5-X-5-X-555--5-5\3--1-X-1-X-111-|
|--5-X-5-X-555--7-7\5--1-X-1-X-111-|
|--5-X-5-X-555--7-7\5--2-X-2-X-222-|
|--7-X-7-X-777--7-7\5--3-X-3-X-333-|
|--7-X-7-X-777--5-5\3--3-X-3-X-333-|
|--5-X-5-X-555--5-5\3--1-X-1-X-111-|

Ako je neko tacno skinuo refren neka mi posalje na mail -
kima@net.yu
Nedeljkovic Milos

***VERZIJA 4***
Am
Nisam te izgleda volio mnogo
F                                 Am
Sve je po starom, al' vise nisam tvoj
Am
I nije mi vazno s kime nocas
F                          Am
Slusas ovu pjesmu i places li.

Am                       F
Ipak, pozelim neko pismo
Am                       F
Ipak, mada zajedno nismo

***VERZIJA 5***
Transkripcija: Nebojsa Stojanovic (kebi@ptt.yu)
Home         : http://www.maris.co.yu

        Bitanga i princeza  1979. - A3


        Am                     AmAsus4Am
        Nisam te izgleda volio mno -  go
        F                   G          Am  AmAsus4Am,FG
        Sve je po starom al vise nisam tvoj
          Am                   AmAsus4Am
        I nije mi vazno s kime no -  cas
        F                   G      Am
        Slusas ovu pjesmu i places li

        Am                G    FG
        Ipak pozelim neko pismo
        Am                G    FG
        Ipak mada zajedno nismo
        Dm (GACA)        (DDDE,DDDDDE C D)
        Pisi,   pisi ko nekad dva-tri reda
        Dm (GACA)            (GGGA,GGGGGA   C  D)
        Pisi,   znam da je guzva i da neces stici
        Dm    (G A  C   A, A              H     C      D      Am)
        Pisi, opisi mjesta gdje nas dvoje skupa nikada necemo ici

        Ti si zadnji romantik na ovom svijetu
        Sto se sporo krece i ceka raj
        Malo si samo promijenila glumce al isti je komad
        Isti zaplet i kraj