Bijelo Dugme - Izgledala Je Malo Cudno

Transkripcija: Ivan Djacic (djacic@yahoo.com)


uvod: gitara 1: (G) Am x
      gitara 2: C5 D5 D5 C5, C5 C5 D5 D5 C5    

Am                        C            D            Am
Izgledala je malo cudno u kaputu zutom krojenom bez veze
Am                    C              D                     Am
Pricala je uvek mnogo filmovi knjige moda i uvijek sve bez veze
Am Em           G               Am
He-ej, i ko zna zasto se sjecam nje
Am Em           G               Am
He-ej, i ko zna zasto se sjecam nje

Govorio sam da je glupa da se oblaci smijesno a ona je rekla "pa sta?"
Lagala je zenski lose, klela se u boga plakala ponekad i nista
Hej, i ko zna zasto se sjecam nje
Hej, i ko zna zasto se sjecam nje

ref:
Dm7                C/D
Ponekad je sretnem cini mi se da je sama
A5 G5 A5 G5
         Ne znam zasto
Dm7              C/D
Imao sam posle i druge ljepse zene od nje
A5 G5 A5 G5
         Sve mi se cini da volim je

< solo: (G) Am x, A5 A5 C5 C5 C5 D5 D5 C5 2x>
< ref>
< uvod>
< strofa 1>

Am Em           G               Am
He-ej, i ko zna zasto se sjecam nje... 4x


!! C5   xx55xx !!
!! D5   xx77xx !!
!! C/D  x5555x !!
!! A5   x77xxx !!
!! G5   x55xxx !!

                 ^  ^
/--------------( *  * )--------------\
|====================================|
|        < DjAkOn   StRaSnI >        |
|     CrambambulyPunch@yahoo.com     |
|    CrambambulyPunch@popstar.com    |
\------------------------------------/

***VERZIJA 2***
Transkripcija: Nebojsa Stojanovic (kebi@ptt.yu)
Home         : http://www.maris.co.yu

    Eto! Bas hocu!  1976. - A1

Am Asus4 Am

    Am
    Izgledala je malo cudno
        (C)       (D)           Am  Am-Asus4-Am, Am-Asus4-Am
    U kaputu zutom krojenom bez veze
    Am
    Pricala je uvijek mnogo
    (C)             (D)                    Am
    Filmovi, knjige, moda i uvijek sve bez veze
    Am  Em         G               Am
    Heeeej, ko zna zasto se sjecam nje

    Govorio sam da je glupa,
    Da se oblaci smijesno a ona je rekla "Pa, sta?"
    Lagala je zenski lose
    Klela se u boga plakala ponekad, pa nista
    
    Dm                  Dm7                 (AGAG)
    Ponekad je sretnem, cini mi se da je sama
        Am
    Ne znam zasto
    Dm                 Dm7                  E7
    Imao sam poslije i druge ljepse zene od nje
                      Am
    Sve mi se cini da volim je
    

***VERZIJA 3***
Transkripcija: Igor Medarevic - mmarko@blic.net
Home         : www.2akordi.net


Uvod:                                       Uvod 2:
E-----------------------------------------  E--------------------------
H-----------------------------------------  H--------------------------
G-----------------------------------------  G--5--7-7-5--5-5--5/7-7-5--
D-----------------------------------------  D--5--7-7-5--5-5--5/7-7-5--
A--5/7-x-7-7-x-x-7-x-7-x-7-7-x-x-x--------  A--------------------------
E--3/5-x-5-5-x-x-5-x-5-x-5-5-x-x-x--------  E--------------------------


A5                        C5           D5           A5
Izgledala je malo cudno u kaputu zutom krojenom bez veze
A5                    C5             D5                    A5
Pricala je uvek mnogo filmovi knjige moda i uvijek sve bez veze
A5 E5           G5              A5
He,ej, i ko zna zasto se sjecam nje
A5 E5           G5              A5
He,ej, i ko zna zasto se sjecam nje

Govorio sam da je glupa da se oblaci smijesno a ona je rekla,pa sta?
Lagala je zenski lose, klela se u boga plakala ponekad i nista
Heeeej, i ko zna zasto se sjecam nje
Heeeej, i ko zna zasto se sjecam nje

ref:
Dm7                C/D
Ponekad je sretnem cini mi se da je sama
A5 G5 A5 G5
         Ne znam zasto
Dm7              C/D
Imao sam posle i druge ljepse zene od nje
A5 G5 A5 G5
         Sve mi se cini da volim je
         
- solo: (G) Am x, A5 A5 C5 C5 C5 D5 D5 C5 2x
- ref
- uvod
- strofa

A5 E5           G5              A5
He-ej, i ko zna zasto se sjecam nje... 4x

 C5   xx55xx
 D5   xx77xx
 C/D  x5555x
 A5   x77xxx
 G5   x55xxx

SOLO:

Figura 1:
E------------------------------------|
H------------------------------------|
G------------------------------------|
D----------------0-5-6-7--0-4-5-6-7--|
A----------3-4-5---------------------|
E--0-3-4-5---------------------------|

Figura 2:
E----------------------|
H----------------------|
G------5-55-5-7-5------|
D------5-55-5-7-5------|
A--7-7-----------------|
E--5-5-----------------|

Figura 3:
E--x13---12--10-----------------------------------------------------|
H----------------13-10h12p10----10-12-13---12--10-10\3--------------|
G----------------------------12-------------------------------------|
D-------------------------------------------------------------------|
A-------------------------------------------------------------------|
E-------------------------------------------------------------------|

Figura 4:
E--10--8------------------------------------------------------------|
H--------10-8-------------------------------------------------------|
G-------------9-7-9\3---7-------------------------------------------|
D-------------------------10-7-7----7-10-9--10-9-10-9-7\3-----------|
A--------------------------------10---------------------------------|
E-------------------------------------------------------------------|

Figura 5:
E--12---15-10-12x---10-------------------------12-10----------------|
H---------------------13-10-10-10-----10-13-13-------13-10-13-10\3--|
G----------------------------------12-------------------------------|
D-------------------------------------------------------------------|
A-------------------------------------------------------------------|
E-------------------------------------------------------------------|

Solo

Uvod-klavijature
Figura 1
Uvod-klavijature
Figura 1
Uvod-klavijature
Figura 2          4x

Uvod 2, figure 3, 4 i 5 idu u toku pesme posle sola i to redosledom

Uvod   2
Figura 3
Figura 4
Figura 5
Uvod   2