Bijelo Dugme - Kad Bi Bio Bijelo Dugme

Transkripcija: Igor Medarevic - mmarko@blic.net
Home         : www.2akordi.net


Uvod
E----------------------------------
H----------------------------------
G----------------------------------
D--5--5-5-5--5-5-5--5-5-5-x-3-x-/--
A--3--3-3-3--3-3-3--3-3-3-x-1-x-/--
E----------------------------------

---------------------------------------
---------------------------------------
---------------------------------------
-5-5-5--5-5-5--5-5-5-x-3-x-------------  35x
-3-3-3--3-3-3--3-3-3-x-1-x-------------
---------------------------------------

Figura 1
Ovu figuru sviraju 2 gitare u isto vreme

E---------------------------------------------
H---------------------------------------------
G---------------------------------------------
D------0-1-3/5\3-0-1-0h1p0h1p0h1p0h1p0h1p0h1--
A--1/3----------------------------------------
E---------------------------------------------

-------------------------------------
-------------------------------------
-------------------------------------
--3/6-6b-\3-1-1----------------------
---------------1/3--2-3-2-3-2-3-2-\--
-------------------------------------

Figura 2
Gitara 1 svira Figuru 2,a Gitara 2 svira Figuru 3

E-------------------------------------------------
H------3-4-6/8b-\6-3-4-3h4p3h4p3h4p3h4p3h4p3h4p3--
G--3/5--------------------------------------------
D-------------------------------------------------
A-------------------------------------------------
E-------------------------------------------------

-----------------------------------
--6/8-8b-\6-2/4-4------------------
-----------------5--4-5-4-5-4-5-4--
-----------------------------------
-----------------------------------
-----------------------------------

Figura 3
E---------------------------------------------
H---------------------------------------------
G---------------------------------------------
D------0-1-3/5\3-0-1-0h1p0h1p0h1p0h1p0h1p0h1--
A--1/3----------------------------------------
E---------------------------------------------

------------------------------------
------------------------------------
------------------------------------
--3/6-6b-\3-0h1-1-------------------
-----------------1/3----------------
---------------------3-4-3-4-3-4-3--

Prelaz
E------------------------------------------------------------
H------------------------------------------------------------
G------------------------------------------------------------
D--3-5----------------------3-5-------------------------3-5--
A--1-3----------------------1-3-------------------------1-3--
E------------------------------------------------------------

Riff
E----------------------------------------------------------------
H----------------------------------------------------------------
G--3--5--5-5-5--5-5-5--5-5-8-x-3--5--5-5-5--5-5-5--5-5-8-x-3--5--
D--3--5--5-5-5--5-5-5--5-5-8-x-3--5--5-5-5--5-5-5--5-5-8-x-3--5--
A--1--3--3-3-3--3-3-3--3-3-6-x-1--3--3-3-3--3-3-3--3-3-6-x-1--3--
E----------------------------------------------------------------

Riff 2x

C5                                                Riff
Kad bi bio bijelo dugme,mala bi se zakopcala u me
C5                                                        Riff
kad bi bio dugme plavo, ne bi znala da sam kraj nje spav'o
F5   B5      Riff ?    F5         B5    Gis5         Riff
hej, mala,hej,         kad bi bio dugme he, e, eee

Da sam djerdan sav od zlata grlio bi malu oko vrata
dir'o bih je cijelog dana,ne zna selo,ne zna njena nana
hej, mala hej,kad bi bio dugme he, e, eee

B5 C5,hej  B5 C5,hej  B5 C5,hej...hej  hej,hej,hej

Riff 2x
Uvod 7 1/2

Prelaz 2
E-------------------------------------------------------------
H-------------------------------------------------------------
G--5-x-5-x-5-x-5-x-5-x-5-x-5-x-5-x-5-x-5-x-5-x-5-x-5-x-5-x-5--
D-------------------------------------------------------------
A-------------------------------------------------------------
E-------------------------------------------------------------

Riff 2x
Prelaz 2
Riff 1 ?
Prelaz 2
Riff 1 ?
Prelaz 2
Riff 10 ? i odmah nastavljate ovo dole

E--------
H--------
G--------
D--3--5--
A--1--3--
E--------

E------------------------------------
H------------------------------------
G------------------------------------
D--10-8--7-6--3-5----10-8--7-6--3-5--
A---8-6--5-4--1-3-----8-6--5-4--1-3--
E------------------------------------

E-------------------------------------------
H-------------------------------------------
G-------------------------------------------
D--10-8--7-6--3-5----10-8--7-6--3-5--3-5----
A---8-6--5-4--1-3-----8-6--5-4--1-3--1-3-\--
E-------------------------------------------

Solo 1
E-------------------------------------------------------
H--8b-\6~~----6--------------------4---4/6---4----------
G----------8----8-7-5--4---5---7-----------------7---5--
D-------------------------------------------------------
A-------------------------------------------------------
E-------------------------------------------------------

E--------------------------------------------------
H-----------4--6--4----------------4-6-4-----------
G--4--5--7-----------6/7--5--4-5-7------6/7-5-5\3--
D--------------------------------------------------
A--------------------------------------------------
E--------------------------------------------------

Na ovom mestu se ukljucuje i Gitara 2

Gitara 1 svira
E--3-2-3-3-3-2-2------3-2-3-5-3-2-2------3-2-3-3-3-2-3-2-3-2-3-2---
H-------------4-4-3-\------------4-4-3-\------------4---4---4---4--
G------------------------------------------------------------------
D------------------------------------------------------------------
A------------------------------------------------------------------
E------------------------------------------------------------------

E--3-2-3-2-3-2-3-2-3-2-3-2-2-3-5b--1/3-3b-3b-3/6-6b-6b--
H-----4---4---4---4---4---4-----------------------------
G-------------------------------------------------------
D-------------------------------------------------------
A-------------------------------------------------------
E-------------------------------------------------------

E--6/8-8b-8b-8/10-10b-10b----------------------------------
H--------------------------13b---13b---13b--13b--13b--13b--
G----------------------------------------------------------
D----------------------------------------------------------
A----------------------------------------------------------
E----------------------------------------------------------

E--------------------------------------------
H--13b-13b-13b-13b-13b--13b-13b-13b-13b-13b--
G--------------------------------------------
D--------------------------------------------
A--------------------------------------------
E--------------------------------------------

---------------------------------------------
-13b-13b-13b-13b-13b--13b-13b-13b-13b-13b-\--
---------------------------------------------
---------------------------------------------
---------------------------------------------
---------------------------------------------

Gitara 2
E--------------------------------------------------------------
H------4-3-4-4-4-3-3------4-3-4-4-4-3-3------4-3-4-4-4-3-4-3---
G--1/5------------5-5-4-\------------5-5-4-\------------5---5--
D--------------------------------------------------------------
A--------------------------------------------------------------
E--------------------------------------------------------------

E-------------------------------------------------------
H--4-3-4-3-4-3-4-3-4-3-4-3-4-3-4-3-3-4-5b--1/5-5b-5b5b--
G-----5---5---5---5---5---5---5---5---------------------
D-------------------------------------------------------
A-------------------------------------------------------
E-------------------------------------------------------

E------------------------------------11b---11b--
H--1/5-5b-5b-1/5-5b-5b-1/5-5b-5b-1/10-----------
G-----------------------------------------------
D-----------------------------------------------
A-----------------------------------------------
E-----------------------------------------------

E--11b--11b--11b--11b--11b-11b-11b-11b-11b--11b-11b-11b-11b-11b--
H----------------------------------------------------------------
G----------------------------------------------------------------
D----------------------------------------------------------------
A----------------------------------------------------------------
E----------------------------------------------------------------

E--11b-11b-11b-11b-11b--11b-11b-11b-11b-11b-\--
H----------------------------------------------
G----------------------------------------------
D----------------------------------------------
A----------------------------------------------
E----------------------------------------------

Gitara 1    Gitara 2   Gitara 1      Gitara 2
E---------- ---------- ------------- ----------
H---------- ---------- ------------- ----------
G---------- ---------- ------------- ----------
D---------- ---------- ------------- ----------
A--3333333- --3333333- --3-1-333333- --3333333-
E---------- ---------- ------------- ----------

 Gitara 1   Gitara 2      Gitara 1          Gitara 2
E---------- ------------- ----------------- ------------------
H---------- ------------- ----------------- ------------------
G---------- ------------- ----------------- ------------------
D---------- -----5------- --------3--5----- --------3--5------
A--3333333- --3-1-333333- --3-6-33-33-3333- --3-6-33-33-3333--
E---------- ------------- ----------------- ------------------


Gitara 1    Gitara 2   Gitara 1
E---------- ---------- ----------------
H---------- ---------- ----------------
G---------- ---------- ----------------
D--5------- --5------- --5-----5-------
A---333333- ---333333- ---33333-333333-
E---------- ---------- ----------------

Gitara 2
E-----------------------------------------------------------
H-----------------------------------------------------------
G------------3-2-0-5-4-0-7-6-0-9-8-0-10-9-0-11-10-0-12b~~~--
D-------3-2-0-----------------------------------------------
A--3-2-0----------------------------------------------------
E-----------------------------------------------------------

Za ovu skalu ne garantujem da je tacna, jer je stvarno uvrnuta.

Solo 2 - Za ovaj solo treba izdvojiti malo vise vremena. Bice gotov za
par dana,pa ce stici naknadno.

Prelaz

Riff 2x

Tekst

Kraj

                                 C5   Dis5   F5   G5     C5
ei, ea ,ei,ea eiea,eiea,eiea,eiea  hej    hej  hej  heaa,aaaaaaaaaa

C5  C5

Ako nesto nije jasno,tu sam.

Inace, mislim da je ovu stvar s Dugmetom snimio Stefanovski.
Zapravo on je ta Gitara 2.

Pozdrav

***VERZIJA 2***
Transkripcija: wolfy@sezampro.yu
Poslao       : Nebojsa (npfc@hotmail.com)
Home         : http://members.tripod.com/cdcabrilo/

Info: Pesmu sam ovako dobio i to je izvod iz knjige
"Wow! The Music Book!"

Koristeni hvatovi:
Cm F B Cm   F B Cm , F Cm B Cm

***VERZIJA 3***
Transkripcija: Nebojsa Stojanovic (kebi@ptt.yu)
Home         : http://www.maris.co.yu

        Kad bi bio bijelo dugme  1974. - B1


        Mala moja da sam bijelo dugme   NAPOMENA:
        Bil se mala zakopcala u me      Cm* (solo sema: C,D#DB)
        Cm*
        Kad bi bio bijelo dugme
        F          B         Cm*
        Mala bi se zakopcala u me
        Cm
        Kad bi bio dugme plavo
        F           B              Cm*
        Ne bi znala da sam krajnje spavo
        F   B    Cm*
        Hej mala hej
        F          B      G#BCm*
        Kad bi bio dugme, heeeej ...

        Da sam djerdan sav od zlata
        Grlio bih malu oko vrata
        Diro bih je oko vrata
        Ne zna selo ne zna njena mama
        F   B    Cm*
        Hej mala hej
        F          B      G#BCm CmD#FGCm
        Kad bi bio dugme, heeeej


***VERZIJA 4***
Transkripcija: Igor Medarevic - mmarko@blic.net
Home         : www.2akordi.net


* SOLO 2:

Gitara 1
E---------------------------------------------------------------
H----------------------------------------------------6-6-8b-~~--
G-------------------------------------5-5-7-5-7-8-7-8-8---------
D----------------------5-5-6-5-6-8-6-8-8------------------------
A-------5-5-6-5-6-8-6-8-8---------------------------------------
E--8-6-8-8------------------------------------------------------

E------------------------------------------
H------------------------------------------
G--3p0-3p0-3p0-3p0-3p0-3p0-3p0-3p0----3p0--
D------------------------------------3-----
A---------------------------------3/5------
E------------------------------------------

E---------------------------------------------
H---------------------------------------------
G--3p0-3p0-3p0-3p0-3p0-3p0-3p0-3p0-7\5-3-3p0--
D---------------------------------------------
A---------------------------------------------
E---------------------------------------------

E------------------------------------------
H------------------------------------------
G--3p0-3p0-3p0-3p0-3p0-3p0-3p0-3p0----3p0--
D------------------------------------3-----
A---------------------------------3/5------
E------------------------------------------

 Gitara 1
E--------3-------------------------------------------------
H--2/3-6---6-3---------------------------------------------
G-------------5-3-5-3--------------------------------------
D----------------5---5-5-----------------------------------
A----------------------------------------------------------
E----------------------------------------------------------
|
|Gitara 2
|
E--------------------13b--13b-11---------------------------
H-------------------------------13--11---------------------
G-------------------------------------12-10h12p10\8--10-8--
D--------------------------------------------------10------
A----------------------------------------------------------
E----------------------------------------------------------

 ----------------------------------
 ----------------------------------
 ---------10-8-------10-8----------
 --10-8-10----10-8-10----10-10-10--
 ----------------------------------
 ----------------------------------

 Gitara 1
E------------------------------------------------
H------------------------------------------------
G--4p3-3-3h4p3-3-3h4p3-3-3h4p3-3-3h4p3-3-3h4p3---
D-----5-------5-------5-------5-------5-------5--
A------------------------------------------------
E------------------------------------------------

------------------------------------
------------------------------------
--3-3h4p3-3-3h4p3-3-3h4p3-3-3h4p3---
---------5-------5-------5-------5--
------------------------------------
------------------------------------

 Gitara 2
E------------------------------------------------------------
H------------------------------------------------------------
G------------------8-------------10--7b~---------------------
D--------------8-10-10-10-10-8-10----------------------------
A----------8-10----------------------------------------------
E--6/8-8-10--------------------------------------------------
|
|Gitara 1
|
E------------------------------------10b---8-----------------
H----------------------------------------11-11h10h8--8-11-8--
G--------------------------------------------------10--------
D------------------------------------------------------------
A------------------------------------------------------------
E------------------------------------------------------------

 Gitara 2
E-----------8--------------
H--8-11p8----11--8---------
G--------10-------7--------
D--------------------------
A--------------------------
E--------------------------
|
|Gitara 1
|
E--------------------------
H----------------8b--------
G-------------------5-7-0--
D--------------------------
A--------------------------
E--------------------------

 Gitara 2
E--------------------------------------------------
H------------8-------------8h11p8--8-11p8--8-8-----
G--8p7---------------------------10------10--------
D-----10-8/10--------------------------------------
A--------------------------------------------------
E--------------------------------------------------
|
|Gitara 1
|
E--------------------------------------------------
H-------------------6------------------------------
G--------------7p5-7-7-5-7---------------------7b--
D--------------------------------------------------
A--------------------------------------------------
E--------------------------------------------------

 Gitara 2
E----------------------------------------------------------------
H----------------------------------------------------------------
G--5p0-5p0-5p0-5p0-5p0-5p0-5p0-5p0-5p0--5p0--5p0--5p0--5p0--5p0--
D----------------------------------------------------------------
A----------------------------------------------------------------
E----------------------------------------------------------------
|
|Gitara 1
|
E------------------------------------------------------------------
H------------------------------------------------------------------
G-------------------------------------3p0--3p0--3p0--3p0--3p0-3p0--
D------------------------------------------------------------------
A------------------------------------------------------------------
E------------------------------------------------------------------

 Gitara 2
E--------------------------------------------------------------
H--------------------------------------------------------------
G--5p0--5p0--5p0--5p0--5p0--5p0--5p0--5p0--5p0--5p0--5p0--5p0--
D--------------------------------------------------------------
A--------------------------------------------------------------
E--------------------------------------------------------------
|
|Gitara 1
|
E-----------------------------------------------------------------
H-----------------------------------------------------------------
G-----3p0--3p0--3p0--3p0--3p0--3p0--3p0--3p0--3p0--3p0--3p0--3p0--
D-----------------------------------------------------------------
A-----------------------------------------------------------------
E-----------------------------------------------------------------