Bijelo Dugme - Ne Dese Se Takve Stvari Pravome Muskarcu

Transkripcija: Igor Medarevic - mmarko@blic.net
Home         : www.2akordi.net


Uvodni riff:
E-----------------------------------------------
H-----------------------------------------------
G-----------------------------------------------  2x
D-----------5--------------------5--------------
A--7-7-9-7--5-----------7-7-9-7--5--------------
E--5---5---0--xx-3-2-xx-5---5---0--xx-5-3-5-3/--

E---------------------------------------------
H---------------------------------------------
G---------------------------------------------
D-----------5--------------------5------------
A--7-7-9-7--5-----------7-7-9-7--5------------
E--5---5---0--xx-3-2-xx-5---5---0--xx-3-2-xx--

E------------------------------------------------
H------------------------------------------------
G------------------------------------------------
D-----------5--------------------5---------------
A--7-7-9-7--5-----------7-7-9-7--5------------7--
E--5---5---0--xx-3-2-xx-5---5---0--xx-3-2-xx--5--

      To sto izgledam kao da sam tuzan
      Jer kao da patim malo

E--------------
H--------------
G--------------
D--------------
A-----------7--
E--5-3-5-3/-5--
    
      I to sto ti pisem duga pisma
      I sto te pratim stalno

 Nije znak, nije   znak, nije znak, nije

                   D*
                E------------------------
                H------------------------
                G-----------5------------
                D--7-7-9-7--5------------  2 x
                A--5---5---0--xx-3-2-xx--
                E------------------------

   znak                  nije znak da sam

  A*
E------------------------
H------------------------
G------------------------
D-----------5------------  2 x
A--7-7-9-7--5------------
E--5---5---0--xx-3-2-xx--

E---------------------------------------
H---------------------------10--10-8\4--
G----------------------------9---9-7\3--
D--9----------------9-------------------
A--7----------------7-------------------
E---------------------------------------

   zaljubljen u tebe, nisam lud

        D5                         G5
    Ti si mi uvijek bila samo dobar

   drug

   A*
E-------------------------
H-------------------------
G-------------------------
D-----------5------------- 2 x
A--7-7-9-7--5-------------
E--5---5---0--xx-3-2-xx---    

    A
    Ni to sto nocu ne mogu da spavam
    I sto ti pod prozor dodjem
    I to sto se pravim kao da te ne gledam
    Kad kraj tebe prodjem
    Nije znak, nije znak, nije znak, nije znak
    Nije znak da sam zaljubljen u tebe
    Nisam lud
    Ti si mi uvijek bila samo dobar drug
    
Na kraju ove 2. strofe isto se svira A* 2 puta s tim sto je
drugo ponavljanje bez  -xx-3-2-xx-- ,tj napravi se mala pauza
i odmah krece ref

REF:
                 E     A
        Ja nisam nikad bio zaljubljen
        C# D D#  E     A
        Ja nisam nikad bio zaljubljen
AAHHCCC#C# D
        Ne dese se takve stvari pravome muskarcu
        E    E   E    E   EE
       To se desi slabicu samo

        A
    I nemoj da pomislis da sam zaljubljen u tebe
    Jer mi se place nekad
    Ni to sto sad se dotjerujem stalno
    Vise nego ikad
    Nije znak, nije znak, nije znak, nije znak
    Nije znak da sam zaljubljen u tebe
    Nisam lud
    Ti si mi uvijek bila samo dobar drug

      A* 2x

SOLO:

  Usna harmonika

  Gitara
        1.
      E----------------------------------------------------------
      H-7b-/10b-10-------------------7b-/10b-10------------------
      G------------9-6\4-6--------6-------------9-6\4---------6--
      D--------------------7--7-9---------------------7-7777-9---
      A--------------------7-7------------------------7----------
      E----------------------------------------------------------

      Usna harmonika

      Gitara
        2.
      E----------------------------------------------------------
      H-7b-/10b-10-------------------7b-/10b-10------------------
      G------------9-6\4-6--------6-------------9-6\4---------6--
      D--------------------7--7-9---------------------7-7777-9---
      A--------------------7-7------------------------7----------
      E----------------------------------------------------------

      E------------------------
      H------------------------
      G------------------------
      D--7777-7777-7-7---------
      A--7777-7777-7-7--4-5-6--
      E------------------------

                      ja ni kad nisam.....

      I nemoj da pomislis.....

      A* 2x

      Usna harmonika
      Solo 1.
      Usna harmonika
      Solo 1.
      Usna harmonika
      Solo 1.
      Usna harmonika
      Solo 1.

Ako nekome nesto nije jasno, dovoljno je samo jednom da cuje pjesmu
i sve ce da skuzi.


***VERZIJA 2***
Transkripcija: Nebojsa Stojanovic (kebi@ptt.yu)
Home         : http://www.maris.co.yu

    Eto! Bas hocu!  1976. - B3

                                                 INTRO riff:
    A*                                           A A6 A7,G F#
    To sto izgledam kao da sam tuzan             A A6 A7,A G,A G
                       (GAGA)
    I kao da patim malo                          sema :A*(A A6 A7,G F#)
    A                                                  D*(D D6 D7,C H)
    I to sto ti pisem duga pisma

    I sto te pratim stalno
                    D*                    A*
    Nije znak, nije znak, nije znak, nije znak
                         E
    Nije znak da sam zaljubljen u tebe
          Esus4 Em
    Nisam lud
    D                         G     A
    Ti si mi uvijek bila samo dobar drug

    Ni to sto nocu ne mogu da spavam
    I sto ti pod prozor dodjem
    I to sto se pravim kao da te ne gledam
    Kad kraj tebe prodjem
    Nije znak, nije znak, nije znak, nije znak
    Nije znak da sam zaljubljen u tebe
    Nisam lud
    Ti si mi uvijek bila samo dobar drug

             E     A
    Ja nisam nikad bio zaljubljen
    C# D D#  E     A
    Ja nisam nikad bio zaljubljen
  HCC# D
    Ne dese se takve stvari pravome muskarcu
        E
    To se desi slabicu samo
    
    A
    I nemoj da pomislis da sam zaljubljen u tebe
    Jer mi se place nekad
    Ni to sto se dotjerujem stalno
    Vise nego ikad
    Nije znak, nije znak, nije znak, nije znak
    Nije znak da sam zaljubljen u tebe
    Nisam lud
    Ti si mi uvijek bila samo dobar drug