Bijelo Dugme - Ne Gledaj Me Tako I Ne Ljubi Me Vise

Transkripcija: Nebojsa Stojanovic (kebi@ptt.yu)
Home         : http://www.maris.co.yu


    Sta bi dao da si na mom mjestu  1975. - A4


    Am           C                  akord i solo sema:
    Ne gledaj me tako nocas             (A,GAC;A,GAC;CHG,A)
    D          C     G      Am          =Am(GA)C;Am(GA)C;C(H)G,Am
    Jer u srcu tvoju ljubav slutim
    Am               C
    Ne gledaj me jer muzika svira
    D          C      G    Am
    Reci cu ti srvari koje cutim
         Dm           Em
    Zato sklopi oci i idi
          F                 G
    Jer i tvoje su zelene i snene
        Em7   Am
    Kao nekad njene

    Ne nudi mi usne nocas
    Pozelicu da me uvijek ljube
    Ne govori tako lijepo
    Ne vjerujem usnama kad gube
    Lagale su drugog
    Lagace i mene
    Kao nekad njene
    Jer lagale su drugog
    Lagace i mene
    Isto kao nekad njene
    
    Am(H)  C          G
    Ja sam covjek bez snage
       Am G      Am
    Da krene jos jednom
    Am(H)  C             G
    Ja sam sanjar sto je sanjao
           Am G   Am
    Samo s jednom zenom
    Am(H)  C          G
    Ja sam kockar bez srece
          Am    G     F         E7
    Ja se bojim ja te molim idi sad
                           C (H  G) Am
    Ne gledaj me tako i ne ljubi me vise

***VERZIJA 2***
Transkripcija: ???


intro:
Am C
--------------------------------------------------
------------10~~---------13----12-------10--------
-------------------------15b17-14b16-12-12b14~~---
--------------------------------------------------
--------------------------------------------------
--------------------------------------------------

riff na drugoj gitari:
------------
------------
------------
------------
--3-2---0---
------3-----

Am
Ne gledaj me tako nocas
D          riff         Am     riff
Jer u srcu tvoju ljubav slutim

Ne gledaj me jer muzika svira

Reci cu ti stvari koje cutim
      Dm           Em
Zato sklopi oci, i idi
      F                 G
Jer i tvoje su zelene i snene
          Am    C Am C..
kao nekad njene

AmGC               G       Am
Ja sam covjek bez snage da krene jos jednom
AmGC                  G            Am
Ja sam sanjar sto je sanjao samo s jednom zenom
AmGC                G
Ja sam kockar bez srece
F                   E
Ja se bojim, ja te molim, idi sad
                          C G     Am
I ne gledaj me tako i ne ljubi me vise

-------------------------------/8-7-----------------------------
-------------------------------------10-8-----------------------
------------------------------------------10-9--------10--9h10--
----------------------------2------------------12-11------------
-3-3p2-----0-0-0--3-3-3-2-3-------------------------------------
-------5--------------------------------------------------------

----------------------------------------------------13----------
--------------10--13-12h13------------12-13/15-15---------------
------------9--------------14-13-14~~-----------------14--------
12-11-12~-------------------------------------------------------
----------------------------------------------------------------
----------------------------------------------------------------

-------------------------------------------------------------------------------
-13-12-15----13-12----------------------------------------10--13-12h13---------
-------------------14-12--------------10-9h10---------9----------------14-13-14
----------14-------------15-14-12-11---------12-11-12--------------------------
-------------------------------------------------------------------------------
-------------------------------------------------------------------------------

-------------13-----------------------------------------------------
-10-12/13/15-------13-12-15-----13-12-------------------------------
----------------14--------------------14-12-------------------------
----------------------------14--------------15~~~-------------------
--------------------------------------------------------------------
--------------------------------------------------------------------

ref:
------------------
------------------
-7b9r7-5-7--------
-----------7-5h7--
------------------
------------------

Ne nudi mi usne nocas

Pozelicu da me uvijek ljube

--------------
--10~~~~------
--------------
--------------
--------------
--------------

Ne govori tako lijepo

Ne vjerujem usnama kad ljube

--12b14~~~~~~--
---------------
---------------
---------------
---------------
---------------

Lagale su drugog,
Lagat ce i mene isto kao nekad njene
Lagale su drugog,
Lagat ce i mene isto kao nekad njene
Lagale su drugog,
Lagat ce i mene isto kao nekad njene

outro:
---------------------------------------------------------13--
----------------------10-13--12h13---------12-13/15-15-------
-10-10-9h10---------9--------------14-13-14------------------
-----------12-11-12------------------------------------------
-------------------------------------------------------------
-------------------------------------------------------------

-------------------------------------------------------------
----13-12/15----/13-12---------------------------------------
-14--------------------14-12-------------10-9h10-------------
-------------14--------------15-14-12-11----------12-11-12---
-------------------------------------------------------------
-------------------------------------------------------------

-------------------------------------------------------------
--10---13-12h13----------------------------------------------
9----------------14-13-14-itd--------------------------------
-------------------------------------------------------------
-------------------------------------------------------------
-------------------------------------------------------------

***VERZIJA 3***
Transkripcija: Igor Medarevic - mmarko@blic.net
Home         : www.2akordi.net


SOLO:
E-----------------------------8-7-5----------------------------
H----------------------------------8-4/6-5h6p5---6-5h6p5-------
G---------------------------------------------7-6-------7-6-7--
D---------------------------0----------------------------------
A--3-2h3p2-----------333-2-3-----------------------------------
E---------3----555---------------------------------------------

E----5-8-7h8p7----------7-8-/10-10-13---8-7-10--
H--5----------10-9-10----------------10---------
G---------------------------------------------9-
D-----------------------------------------------
A-----------------------------------------------
E-----------------------------------------------

-8-7h8p7-5----------------
----------8-4/6-5h6p5-----
---------------------7-6--
--------------------------
--------------------------
--------------------------

E------------------5-8-7h8p7---------
H--6-5h6p5-------5----------10-9-10--
G---------7-6-7----------------------
D------------------------------------
A------------------------------------
E------------------------------------

-7-8-/10-10-13---8-7-10--8-7-5-------
--------------10--------------8-4/6--
-----------------------9-------------
-------------------------------------
-------------------------------------
-------------------------------------