Bijelo Dugme - Ne Spavaj Mala Moja, Muzika Dok Svira

Transkripcija: Ivan Djacic (djacic@yahoo.com)


          A
Ne spavaj mala moja muzika dok svira,
A       A6 A A6  A     A6    A   A6
Jedan ludi ritam nikom ne da mira
D D6    D D6  D  D6    D
Mama je legla i odavno spava,
D6   A A6 A  A6 A     A6     A A6
Niko nece znati da si bila s nama,
E   E6    E   E6 E     E6   E   E6
Cekacu te jos trenutak mala moja,
  E5    F#5 G5 G#5 A  A6 A A6
A onda odoh plesat sam,
E5    F#5 G5 G#5 A  A6 A A6
Onda odoh plesat sam

Budi se svi te zovu, muzika se cuje,
Zaigrajmo skupa, cijelo drustvo tu je
Tata spava, svuda je tama,
Niko nece znati da si bila s nama,
Cekacu te jos trenutak duso moja,
Onda odoh plesat sam,
A onda odoh plesat sam

ref:
                    E     E/G# E    E E/G# E
Jer to je mala moja rock' n'   roll
A    A/C# A    A A/G# A   E    E/G# E     E E/G# E
Rock'n'   roll,           rock'n'   roll,
A    A/C# A    A A/G# A   D    D/F# D    Adim
Rock'n'   roll,           rock'n'   roll,
E D  C# H  E
mala to je rock!

< strofa 1>
< solo = strofa>
< ref>
< strofa 2>

A      A
Sam... jeaa...


!! A6    5976xx !!
!! E6    0421xx !!
!! D6    x5977x !!
!! E/G#  422100 !!
!! A/C#  x42220 !!
!! D/F#  xx4232 !!
!! Adim  xx1212 !!

                 ^  ^
/--------------( *  * )--------------\
|====================================|
|        < DjAkOn   StRaSnI >        |
|     CrambambulyPunch@yahoo.com     |
|    CrambambulyPunch@popstar.com    |
\------------------------------------/


***VERZIJA 2***
Transkripcija: Igor Medarevic - mmarko@blic.ne
Home         : www.2akordi.net


tak,tak,tak

   Ne spavaj mala moja muzika dok svira,
E---------------------------------------
H---------------------------------------
G---------------------------------------
D--------2-2-4-2-2--4-2--2-4-2-2-2-2----
A--------0-0-0-0-0--0-0--0-0-0-0-0-0----
E---------------------------------------

   Jedan ludi ritam nikom ne da mira
E---------------------------------------
H---------------------------------------
G---2--2-4-2-2--4-2--2-4-2-2-2-2--------
D---0--0-0-0-0--0-0--0-0-0-0-0-0--------
A---------------------------------------
E---------------------------------------

    Mama je legla i odavno spava,
E---------------------------------------
H---------------------------------------
G---------------------------------------
D---2--2-4-2-2--4-2--2-4-2-2-2-2--------
A---0--0-0-0-0--0-0--0-0-0-0-0-0--------
E---------------------------------------

   Niko nece znati da si bila s nama,
E---------------------------------------
H---------------------------------------
G---------------------------------------
D---------------------------------------
A---2--2-4-2-2--4-2--2-4-2-2-2-2--------
E---0--0-0-0-0--0-0--0-0-0-0-0-0--------

   Cekacu te jos trenutak mala moja,
E---------------------------------------
H---------------------------------------
G---------------------------------------
D---------------------2--2-4-2-2-2-4-2--
A---------------------0--0-0-2-2-2-0-0--
E----0-0--2-2--3-3-4--------------------

   A onda odoh plesat sam,
E---------------------------------------
H---------------------------------------
G---------------------------------------
D-------------------2-------------------
A-------------------0-------------------
E--0-0--2-2--3-3-4----------------------

   Onda odoh plesat sam

        A5     A5
Budi se svi te zovu, muzika se cuje,
Zaigrajmo skupa, cijelo drustvo tu je
Tata spava, svuda je tama,
Niko nece znati da si bila s nama,
Cekacu te jos trenutak duso moja,
Onda odoh plesat sam,
A onda odoh plesat sam

ref:
E----------------------------------------------
H----------------------------------------------
G----------------------------------------------
D----------------------------------------------
A----------------------------2-----------------
E---------------------0---4------0--0-0-2-3-4--
  Jer to je mala moja rock'n'roll

E--------------------------------------------------
H--------------------------------------------------
G--------------------------------------------------
D---------2----------------------------------------
A--0---4------0--0-0-------------2-----------------
E-------------------4-2-0-0---4------0--0-0-2-3-4--
   Rock'n'roll,           rock'n'roll,

E------------------------------------------
H------------------------------------------
G--------------------------------2---------
D---------2---------------0---4------0--1--
A--0---4-----0--0-0-2-3-4------------------
E------------------------------------------
   Rock'n'roll,           rock'n'roll,

E-------------------------------------------
H-------------------------------------------
G-------------------------------------------
D--2-0--------------------------------------
A-------4--2--2-----------------------------
E-------------0-----------------------------
   mala to je rock!

1. strofa
Solo
Ref

2. strofa
Kraj

A5    A5   A5     A5
Sam...sam  jeaa...

Solo
E-----------------------------------------------------
H--101010-8/1010-8/1010--8/10-1010-8/10-1010-8/10-10--
G---9-9-9-7/-9-9-7/-9-9--7/-9--9-9-7/-9--9-9-7/-9--9--
D-----------------------------------------------------
A-----------------------------------------------------
E-----------------------------------------------------

------------------------------
-8/10-1010-8/10-1010-8/10-10--
-7/-9--9-9-7/-9--9-9-7/-9--9--
------------------------------
------------------------------
------------------------------

-----------------------------------------------------------
--8/10-1010-8/10-1010-8/10-10-8/10-1010-8/10-1010-8/10-10--
--7/-9--9-9-7/-9--9-9-7/-9--9-7/-9--9-9-7/-9--9-9-7/-9--9--
-----------------------------------------------------------
-----------------------------------------------------------
-----------------------------------------------------------

E--8/10-1010-8/10-1010-8/10-10-8/10-1010-8/10-1010-8/10-10--
H--8/10-1010-8/10-1010-8/10-10-8/10-1010-8/10-1010-8/10-10--
G-----------------------------------------------------------
D-----------------------------------------------------------
A-----------------------------------------------------------
E-----------------------------------------------------------

E-----------------------------------------
H-----------------------------------------
G--7/9-99-7/9-99-7/9-9-7/9-99-7/9-99-9-9--
D--5/7-77-5/7-77-5/7-7-5/7-77-5/7-77-7-7--
A-----------------------------------------
E-----------------------------------------

E--10b-8------------------------------------------------------
H-------10-8--------------------------------------------------
G-----------9-7p5---7-5---------------------5---------5-7-----
D----------------7p5---7-7-7-5-\-----------5-7-7-7-5h7---7-7--
A---------------------------------------3h5-------------------
E--------------------------------3p0h3-5----------------------

E-----5---------------------------
H--3/5-8-5------------------------
G---------7p5-7-7p5---7-5---------
D------------7-----7p5---7-\-\-\--
A---------------------------------
E---------------------------------

***VERZIJA 3***
Transkripcija: Sale (goma@pop.transit.ru)

          A
Ne spavaj mala moja, muzika dok svira
        A
Jer taj ludi ritam nikom neda mira
D
Mama je legla i odavno spava
     A
Niko nece znati da si bila s nama
E
Cekat cu te jos trenutak, mala moja
       D    C#5 H5  A
A onda odoh ple_sat sam
E      D    C#5 H5 A
A onda odoh plesat sam

Budi se, svi te zovu, muzika se cuje,
Zaigrajmo skupa, cijelo drustvo tu je
Tat spava i svuda je tama
Niko nece znati da si bila s nama
Cekat cu te jos trenutak, mala moja
A onda odoh plesat sam
A onda odoh plesat sam

A                   E
Jer to je mala moja rock n roll
A            E
Rock n roll, rock n roll
A            D
Rock n roll, rock n roll
E          A
Mala to je Rock!

***VERZIJA 4***
Transkripcija: Nebojsa Stojanovic (kebi@ptt.yu)
Home         : http://www.maris.co.yu

        Kad bi bio bijelo dugme  1974. - A1


        Ne spavaj mala moja muzika dok svira          Riff sema:
                A*                                    A*(A,A6,A7,A6)
        Jer taj ludi ritam nikom ne da mira
        D*                                            D*(D,D6,D7,D6)
        Mama je legla i odavno spava
             A*
        Niko nece znati da si bila s nama
        E*                                            E*(E,E6,E7,E6)
        Cekat cu te jos trenutak mala moja
         (E    F#   G  G#) A
             A onda odoh plesat sam
         (E    F#   G  G#) A
        A onda odoh plesat sam

                           (E    G# H   EEEF#G#   NAPOMENA:
         Jer to je mala moja rock'n' roll              U zagradama su
        A    C# E   AAAG#F#                       solo deonice
        Rock'n' roll
        E    G# H   EEEF#G#
        Rock'n' roll
        A    C# E   AAAG#F#
        Rock'n' roll
        D    F# A   DD#   E D  C# H  E)
        Rock'n' roll      Mala to je rock

        Budi se svi te zovu
        Muzika se cuje
        Zaigrajmo skupa
        Cijelo drustvo tu je
        Tata spava svuda je tama
        Niko nece znati da si bila s nama
        Cekat cu te jos trenutak duso moja
        Onda odoh plesat sam
        Onda odoh plesat sam

    Jer to je mala moja rock'n'roll
        Rock'n'roll rock'n'roll ...
        Mala to je rock