Bijelo Dugme - Odlazim

Transkripcija: Mr.Z  mr.z@mindless.com
Home         : http://2akordi.net/


E       E7
Odlazim,odlazim
          Am           B
ostavljam te,al ne kao prije

ovaj put zauvijek-sad placi
      E
nikad vise ti necu doc
F#
ni kada padaju kise
C#
ni kad me tuga svlada
C
ni kad mi lose ide
      E  B  A7 Am
nikad nikad vise.


E               E7
Oprosti mi dane buduce
        Am                     B
oprosti mi sto cu mozda sretan biti
         A           Am7
sto cu zaboraviti sve ovo

sto mi u ovom casu

tako mnogo znaci.

I ovu poslednju njeznost sto boli
i tvoje nevjerstvo sto mi u srcu gori.


Dosao sam da ti kazem da
A
odlazim odlazim odlazim
    Em
jer srce ne mogu da prevarim
       A
i zato odlazim odlazim odlazim
C                            B7
prastat ne mogu jer odvec te volim

odvec te volim
E
odlazim.


***VERZIJA 2***
Transkripcija: Nebojsa Stojanovic (kebi@ptt.yu)
Home         : http://www.maris.co.yu


* Sta bi dao da si na mom mjestu  1975. - A3

E            E7
Odlazim, odlazim
          A
Ostavljam te
    G#m    C#m
Ali ne kao prije
F#m  G#m A             Am
Ovaj put zauvijek, sad placi
      E       A    E7
Nikad vise ti necu doc
F#m
Ni kada padaju kise
C#m
Ni kad me tuga svlada
          C
Ni kad mi lose ide
      H       H7
Nikad nikad vise

Oprosti mi dane buduce
Oprosti mi
Sto cu mozda i sretan biti
Sto cu zaboravit sve ovo
Sto mi u ovom casu tako mnogo znaci
I ovu posljednju njeznost sto boli
I suze
I tvoje nevjerstvo sto mi u srcu gori

H              (E F#  E) A       A6      A7     A6
Dosao sam da ti kazem da odlazim odlazim odlazim
    E       E6      D#      G
Jer srce ne mogu da prevarim
       A       A6      A7     A6
I zato odlazim odlazim odlazim
C                   H
Prastat ne mogu jer odvec te volim
H7
Odvec te volim


***VERZIJA 3***
Transkripcija: Igor Medarevic - mmarko@blic.net
Home         : www.2akordi.net

SOLO:
E-------------------------19b-12----------------12----
H-------------------------------14--9\7-----------14--
G---------------------9----------------9-8-9/11-------
D----------2-4/6--9/11-11-----------------------------
A-------2-4-------------------------------------------
E--0-2-4----------------------------------------------

E--14b--12-9---------------------------------
H-----------12-9-----------------------------
G---------------11-9-9-11-9----8h9-8-9--8----
D--------------------------11------------11--
A--------------------------------------------
E--------------------------------------------

E-----------------------------------9-7--12/14-12---------
H----------------------------------9---9---------14-12----
G-------------------------------6-9-------------------13--
D----------------------6-6-7-6-7--------------------------
A-------6-6-7-6-7-9-7-9-9---------------------------------
E--9-7-9-9------------------------------------------------

 Gitara 1
E---------------------------------------
H---------------------------------------
G---------------------------------------
D----------------------6-6-7-6-7-9-7-9--
A-------6-6-7-6-7-9-7-9-9---------------
E--9-7-9-9------------------------------
|
|Gitara 2
|
E--19b--14-12-9h12p9--9-12/14-12--------------------------
H-------------------12------------7/9---------------------
G------------------------------------11-9--9--8--13-\11b--
D----------------------------------------11------11-\-9b--
A---------------------------------------------------------
E---------------------------------------------------------

Na kraju predzadnjeg reda nedostaje nekoliko tonova koje
je zaista tesko cuti.To pokrijte svojom improvizacijom.

                              Pozdrav I.M.