Bijelo Dugme - Patim Evo Deset Dana

Transkripcija: Igor Medarevic - mmarko@blic.net
Home         : www.2akordi.net



Uvod: A5    C5 D5

    A5                   A5        C5 D5
    Patim evo deset dana hej hej hej
    A5                   A5        C5 D5
    Sve zbog cure svog jarana curo hej
    F5          G5           A5
    Majko moja umrijecu zbog nje
    F5         G5    C5 D5   A5
    Majko moja umrijecu zbog nje     aaa,ha
      E5    D5    A5
    Umrijecu zbog nje

    Zna svo selo i njen tata joj joj joj
    Da je volim iz inata blago njoj
    Prsten cu joj majko dati svoj
    Prsten cu joj majko dati svoj    aaa,ha
    Prsten da cu joj svoj
    
      A5        C5 D5 A5
      hej,hej   hej,hej

   A   D
    Ti i ja
        A         D
    Iz inata inata inata inata

 Solo:
E----------------------------------7------------------------------|
H------------------------------5/77-10-7--7\5---------------------|
G-----------------------7----------------9---5/99-7-----9-7-------|
D----------------------7-9-9\3---------------------9-7-9---9-7-9--|
A-----------------5-7-9-------------------------------------------|
E--5/7-7777777-5-7------------------------------------------------|

E--10-7------------------------------------------------------------|
H------10-7-7\5----------------------------7-----------------------|
G----------9---5/99-7-----9-7--777-6/7--------------9-7------9-7---|
D--------------------9-7-9---99-------9-7-9--9999-7----9-7-7----9--|
A---------------------------------------------------------9--------|
E------------------------------------------------------------------|

E----------------------------------------------------------------------
H-------------------------------------------------------7--------------
G--5/7-777777-6-4\1-1/7-777777-6-4\1-1/7-777777-6-4--------------------
D--------------------------------------------------9-7-9--9999999-7\5--
A----------------------------------------------------------------------
E----------------------------------------------------------------------

E----------------------------------------------------------------------
H-------------------------------------------------------7--------------
G--5/7-777777-6-4\1-1/7-777777-6-4\1-1/7-777777-6-4--------------------
D--------------------------------------------------9-7-9--9999999\5----
A----------------------------------------------------------------------
E----------------------------------------------------------------------

E--------------------------------------------
H--------------------------------------------
G------7/9-7---------------7/9-7-------------
D--3/9-------7/9-7--3/9----------7/9-7--3/9--
A--------------------------------------------
E--------------------------------------------

E-----------------------------------
H-----------------------------------
G-7/9-7-------7/9-7--------7-10/12--
D-------7/9-7-------7/9-7--5--------
A-----------------------------------
E-----------------------------------


***VERZIJA 2***
Transkripcija: Nebojsa Stojanovic (kebi@ptt.yu)
Home         : http://www.maris.co.yu

    Kad bi bio bijelo dugme  1974. - A4


    Am       (C     G)   Am        (CD)
    Patim evo deset dana hej hej hej
    Am           (C      G)   Am
    Sve zbog cure svog jarana curo hej
    F          G             Am
    Majko moja umrijecu zbog nje
    F          G    (C  D)   Am
    Majko moja umrijecu zbog nje

    Zna svo selo i njen tata joj joj joj
    Da je volim iz inata blago njoj
    Prsten cu joj majko dati svoj
    Prsten cu joj majko dati svoj

    Am   G
    Ti i ja
       Am          G
    Iz inata inata inata inata