Bijelo Dugme - Pljuni I Zapjevaj Moja Jugoslavijo

Transkripcija: Ivan Djacic (djacic@yahoo.com)


intro: Dm            Am    G E
       Pljuni i zapjevaj...

Am                F             Am
Pljuni i zapjevaj moja Jugoslavijo
Am              F             Am
Matero i maceho drudbo moja i utjeho
F              C    G
Moje srce moja kuco stara
F             C   G
Moja dunjo iz ormara
F                   C      G
Moja nevjesto moja ljepotice
     Am     G     E
Moja sirota kraljice
     Am
Jugo jugice...

Ovaj hljeb evo lomim moja Jugoslavijo
Za tebe i bolje dane konje neosedlane
Ovdje kome ne porastu zubi
Ej kukala mu mati
Ovdije nikad nece cvrkut naci
Ko ne nauci urlati

ref:
Am Hm C   G           Dm            C G
 Jugoslavijo na noge, pjevaj nek te cuju
C     G            Dm      Am
Ko ne slusa pjesmu slusace oluju

< solo: Dm Am 2x, Am, G E>

Ovaj hljeb evo lomim moja Jugoslavijo
Za tebe i bolje dane konje neosedlane
Moje srce moja kuco stara
Moja dunjo iz ormara
Moja nevijesto moja ljepotice
Moja sirota kraljice

< ref>
< solo: Dm Am 6x>

                 ^  ^
/--------------( *  * )--------------\
|====================================|
|        < DjAkOn   StRaSnI >        |
|     CrambambulyPunch@yahoo.com     |
|    CrambambulyPunch@popstar.com    |
\------------------------------------/

***VERZIJA 2***
Transkripcija: Nebojsa Stojanovic (kebi@ptt.yu)
Home         : http://www.maris.co.yu

	Pljuni i zapjevaj moja Jugoslavijo  1986. - A1

	Padaj silo i nepravdo narod ti je sudit zvan
	Bjezte od nas mracne sile, svanuo je i nas dan
	Bjezte od nas mracne sile, svanuo je i nas dan
    Am                F             Am
	Pljuni i zapjevaj moja Jugoslavijo
                     F               Am
	Matero i maceho, tugo moja i utjeho
    F               C       G   F               C G
	Moje srce, moja kuco stara, moja dunjo iz ormara
    F               C         G        Am     G     F
	Moja nevjesto moja ljepotice, moja sirota kraljice,
              Am GE
	Jugo, Jugice

	Ovaj hljeb, evo, lomim, moja Jugoslavijo
	Za tebe i bolje dane konje neosedlane
	Ovdje kome ne porastu zubi, e, kukala mu mati
	Ovdje nikad nece copor naci ko ne nauci urlati

    Am (H)C   G           Dm             C G
	Ju__goslavijo na noge pjevaj nek' te cuju
    C     G             Dm       Am
	Ko ne slusa pjesmu, slusace oluju


***VERZIJA 3***
Transkripcija: Igor Medarevic - mmarko@blic.net
Home         : www.2akordi.net

SOLO:
E--------------13-12--------------------------13-12-------13/15-----
H--13-15-15-13-------15-13-15-15--13-15-15-13-------13-13-------15--
G-------------------------------------------------------------------
D-------------------------------------------------------------------
A-------------------------------------------------------------------
E-------------------------------------------------------------------

E------------8-7-----------------------8-7---10-8----
H--8-10-10-8-----10-8-10-10--8-10-10-8-----8-----10--
G----------------------------------------------------
D----------------------------------------------------
A----------------------------------------------------
E----------------------------------------------------