Bijelo Dugme - Selma

Transkripcija:Mr.Z  mr.z@mindless.com
Home         :http://2akordi.net/

Am
Selma putuje na fakultet
    Bm7      G               C
Ona putuje a ja kofer nosim, molim
Dm                         E
Tezak je al' posto njen je licno
               Am
Ja i taj kofer volim
 
Selma na ulazku u voz ti htjedoh reci
Nesto njezno, sto izaziva pozor
Al' rekoh samo zdravo Selma,
i molim te, ne naginji se kroz prozor

       Dm     G      C
Selma, Selma, zdravo Selma
       Dm     E
Putuj, Selma i molim te
                   Am
Ne naginji se kroz prozor

***VERZIJA 2***
Hm                   C#
Selma putuje na fakulltet
           Em     A                 D
Ona putuje a ja kofer nosim, molim
Em                            F#
Tezak je al'Ò posto njen je licno
                Hm
Ja i taj kofer volim
 
Selma na ulazku u voz ti htjedoh reci
Nesto njezno, sto izaziva pozor
Al'Ò rekoh samo *Zdravo, Selma,
i molim te, ne naginji se kroz prozor*
Em         A                D
Selma, Selma, zdravo Selma
           Em   F#
Putuj, Selma i molim te
                        Hm
Ne naginji se kroz prozor

***VERZIJA 3***
Am
Selma
             B7
Putuje na fakultet
     Dm      G
Ona putuje, ja kofer nosim
  C
Molim
 Dm                         E
Tezak je al' posto njen je licno
                Am      C  Dm Am G F E
Ja i taj kofer volim


       Dm   G          C
Selma, Selma, Zdravo, Selma
       Dm  E
Putuj, Selma
                                Am
I molim te, ne naginji se kroz prozor

***VERZIJA 4***
Transkripcija: Nebojsa Stojanovic (kebi@ptt.yu)
Home         : http://www.maris.co.yu

	Kad bi bio bijelo dugme  1974. - A3


        Am                H7
	Selma putuje na fakultet                     NAPOMENA:
            Dm    (C)G                               U zagradama su 
	Ona putuje                                   solo deonice 
                       Csus4C  (FEDC)Dm
	Ja kofer nosim mo - lim
                                  E
	Tezak je al posto njen je licno
                 E7    Asus2Am (A,AAGDGF#F,EDC,CDC,CH)
	Ja i taj kofer vo - lim

	Selma na ulasku u voz ti htjedoh rec
	Nesto njezno
	Nesto sto izaziva pozor
	Al rekoh samo zdravo Selma    Asus2Am (CH,DC,FE,-
	I molim te ne naginji se kroz pro- zor

              Dm    
       -A  G  G  F ED          
        Selma Selma
        G      C
        G   F  F  E DC       
        Zdravo Selma
              Dm   E  
        F E   E  D CH
        Putuj Selma
                                      Asus2Am     
                      D   C   H  C    H    A)
	I molim te ne naginji se kroz pro- zor

***VERZIJA 5***
Transkripcija: zvornicanin(sead_hadzigrahic@hotmail.com)

Uvod+prelaz:
E|-------------------3--2-6-5--8-6------------------------
H|-------1-----4-3----------------------------------------
G|---3-2----3---------------------------------------------
D|--------------------------------------------------------
A|----------------------------------------1---------------
E|---------------------------------6-----------4----4--3--

E|---------------1-0------------------------------------|
H|------------3-------4-----3--1------1-----------------|
G|---0--2--3----------------------3------3--(2)---------|
D|------------------------------------------------------|
A|------------------------------------------------------|
E|------------------------------------------------------|