Bijelo Dugme - Sta Ima Novo

Transkripcija: Nebojsa Stojanovic (kebi@ptt.yu)
Home         : http://www.maris.co.yu

	Ciribiribela  1988. - A2
	

                            EmDEm
	Meni je uvijek trebao
                     G    A   Em DEm   
	Neko da te samo zaboravim
                       EmDEm
	Pozlata na sivilu
                          EmDEm
	Poljupci ko u bunilu
                      EmD  Em 
	Pored mene zene marsiraju
                          EmD  Em
	Korak il dva i brzo nestaju
                    G     A    EmDEm 
	A cipele me stare zuljaju

	Meni je uvijek trebao
	Neko da te samo zaboravim
	Idem ali ne odmicem
	Letim ali ne polijecem
	Pokusavam al uvijek isto je
	Biram zene sto lice na tebe
	Prolaze dani idu godine

            Em      H          Em
	Ej, sta ima novo kod tebe
                 H          Em   
	Jedno te isto kod mene
                    G     A C (DCDC)    Em 
	I uvijek je bilo, ooo, isto ludilo 
        D        G      GDCG(F#)EmCEmGAEm(D)Em   
	Isto ludilo     

***VERZIJA 2***
Transkripcija: Carobnjak


UVOD SOLO:
-|------------15-15-------------------|-----------15-15----------|
-|--12h13r-12-------13-12-13-12-------|-12h13r-12-------13-12-12-|
-|------------------------------14-12-|--------------------------|
-|------------------------------------|--------------------------|
-|------------------------------------|--------------------------|
-|------------------------------------|--------------------------|

-|-----------15-15-------------------|---------------------------------|
-|-12h13r-12-------13-12-13-12-------|-12-12-12-12--15-14-12h14r----12-|
-|-----------------------------14-12-|---------------------------14----|
-|-----------------------------------|---------------------------------|
-|-----------------------------------|---------------------------------|
-|-----------------------------------|---------------------------------|