Bijelo Dugme - Sta Je Tu Je

Transkripcija: Nebojsa Stojanovic (kebi@ptt.yu)
Home         : http://www.maris.co.yu

* Singl ploce (76-80)  1982. - B4

AFA C
    Mislio sam, mislio sam

    Mislio sam sve ce stati

    Kad se moja pjesma cuje

    Svi ce sa mnom zapjevati
    F   C         F   C  G  C
    Sta je, a sad sta je tu je

    Sta je, sta je, a sad sta je tu je

    Sta se moze, sta se moze
    Ostavio nisam traga
    Zahtijev mi vrijeme kuje
    Izdala je bila snaga

    Nista vise nista vise
    Nista vise nije cudno
    Protiv vjetra i oluje
    Pjevati je uzaludno


***VERZIJA 2***
Transkripcija: Igor Medarevic - mmarko@blic.net
Home         : www.2akordi.net


Uvod
E-------------------------------------------------------------------
H-------------------------------------------------------------------
G-------------------------------------------------------------------
D-------------------------------------------------------------------
A--0-0-0-0-0-0-0-0-0-0-0-0-0-0-0-0-0-0-0-0-0-0-0-0-0-0-0-0-0-0-0-0--
E-------------------------------------------------------------------

E-------------------------------------------------------------------
H-------------------------------------------------------------------
G-------------------------------------------------------------------
D-------------------------------------------------------------------
A--0-0-0-0-0-0-0-0-0-0-0-0-0-0-0-0-0-0-0-0-0-0-0-0-0-0-0-0-0-0-0-0--
E-------------------------------------------------------------------

  Figura 1

  Gitara 1

   Am
E-------------------------------------------------------------------
H-------------------------------------------------------------------
G---------------------4-7-5-5-5p4-------------------4-7-5-5-5p4-----
D--5-5-7--5-5-7--5-5-7-----------7-5-7--5-5-7--5-5-7-----------7-5--
A-------------------------------------------------------------------
E-------------------------------------------------------------------
|
| Gitara 2 svira tercu
|
E-------------------------------------------------------------------
H---------------------3-6-5-5-5p3-------------------3-6-5-5-5p3-----
G--4-4-5--4-4-5--4-4-5-----------5-4-5--4-4-5--4-4-5-----------5-4--
D-------------------------------------------------------------------
A-------------------------------------------------------------------
E-------------------------------------------------------------------

  Gitara 1

   F
E------------------------------------
H------------------------------------
G--5-4-7-5-5-5p4---5-4-7-5-5-5p4-----
D---------------7-5-------------7-5--
A------------------------------------
E------------------------------------
|
| Gitara 2
|
E------------------------------------
H--5-3-6-5-5-5p3---5-3-6-5-5-5p3-----
G---------------5-4-------------5-4--
D------------------------------------
A------------------------------------
E------------------------------------

  Gitara 1
   F                                Am
E------------------------------------------
H------------------------------------------
G--5-4-7-5-5-4-7-5-5-4-7-5-5-5p4-----------
D-------------------------------7-5-7--\9--
A------------------------------------------
E------------------------------------------
|
| Gitara 2
|
E-------------------------------------------
H--5-3-6-5-5-3-6-5-5-3-6-5-5-5p3------------
G-------------------------------5-4-5--\7/--
D-------------------------------------------
A-------------------------------------------
E-------------------------------------------

 Prelaz

 Gitara 2
E----------------------------
H----------------------------
G--5-4------------------7-5--
D-----7-5-7-7--7-7-7-5-7-----
A----------------------------
E----------------------------

 Prelaz 2

 Gitara 1
E------------------
H----------3/5-3---
G--3/5-4-2------5--
D------------------
A------------------
E------------------
|
| Gitara 2
|
E-------8b---------
H--8h10------------
G------------------
D------------------
A------------------
E------------------

 Prelaz 3

 Gitara 1
E-----------------------------------
H--13b-\----------------------------
G-----------------------------------
D-----------------------------------
A-----------------------------------
E-----------------------------------
|
| Gitara 2
|
E--10/12-10------------------10-----
H----------13-12-10--10-12-13--13\--
G------------------12---------------
D-----------------------------------
A-----------------------------------
E-----------------------------------

 Prelaz 4

 Gitara 1
E--10b-\8------------------------
H--------------------------------
G--------------------------------
D--------------------------------
A--------------------------------
E--------------------------------
|
| Gitara 2
|
E--22b--20-----------------------
H----------22-20-----------------
G---------------21--19-17--------
D------------------------19-17\--
A--------------------------------
E--------------------------------

Uvod
Figura 1

C
Mislio sam ,mislio sam
mislio sam sve ce stati,
Kad se moja pjesma cuje
Svi ce sa mnom zapjevaati

Ref;

F   C
Sta je...
      F   C  G  C
A sad sta je,tu je
F    C
Sta ,sta  je...
      F   C  G  C
A sad sta je,tu je

Figura 1
Prelaz

Sta se moze ,sta se moze
Ostavio nisam traga


Ref;
Figura 1
Prelaz 2

Nista vise ,nista vise
Nista vise nije cudno

Pjevati je uzaludno

Ref;
Figura 2- Figura 2 se svira kao Figura 1 samo za oktavu vise
Ref;
Figura 2
Prelaz 3
Ref;
Figura 2
Prelaz 4
Ref;
Figura 2

To bi bilo to.
U drugoj stofi nisam razumeo 2 zadnja stiha,a u trecoj
nisam razumeo 3.stih.Stvarno je tesko za razumjeti,bar meni.

Pozdrav
Igor